ISO-10303-21;
HEADER;
FILE_DESCRIPTION (( 'STEP AP203' ),
    '1' );
FILE_NAME ('28cf.STEP',
    '2023-02-13T12:56:01',
    ( '' ),
    ( '' ),
    'SwSTEP 2.0',
    'SolidWorks 2019',
    '' );
FILE_SCHEMA (( 'CONFIG_CONTROL_DESIGN' ));
ENDSEC;

DATA;
#1 = DIRECTION ( 'NONE',  ( -1.000000000000000000, 0.000000000000000000, 0.000000000000000000 ) ) ;
#2 = FACE_OUTER_BOUND ( 'NONE', #172, .T. ) ;
#3 = EDGE_CURVE ( 'NONE', #7, #249, #183, .T. ) ;
#4 = CYLINDRICAL_SURFACE ( 'NONE', #191, 4.000000000000000000 ) ;
#5 = CARTESIAN_POINT ( 'NONE',  ( 0.000000000000000000, 0.000000000000000000, 5.000000000000000000 ) ) ;
#6 = ORIENTED_EDGE ( 'NONE', *, *, #241, .T. ) ;
#7 = VERTEX_POINT ( 'NONE', #71 ) ;
#8 = VERTEX_POINT ( 'NONE', #49 ) ;
#9 = EDGE_LOOP ( 'NONE', ( #53, #93, #6, #148 ) ) ;
#10 = VERTEX_POINT ( 'NONE', #160 ) ;
#11 = PERSON_AND_ORGANIZATION ( #128, #95 ) ;
#12 = CIRCLE ( 'NONE', #56, 7.000000000000000000 ) ;
#13 = APPROVAL_ROLE ( '' ) ;
#14 = PERSON_AND_ORGANIZATION_ROLE ( 'creator' ) ;
#15 = EDGE_CURVE ( 'NONE', #137, #192, #130, .T. ) ;
#16 = CARTESIAN_POINT ( 'NONE',  ( 0.000000000000000000, 0.000000000000000000, 0.000000000000000000 ) ) ;
#17 = CARTESIAN_POINT ( 'NONE',  ( 0.000000000000000000, 0.000000000000000000, 0.000000000000000000 ) ) ;
#18 = DIRECTION ( 'NONE',  ( 0.000000000000000000, 0.000000000000000000, 1.000000000000000000 ) ) ;
#19 = CARTESIAN_POINT ( 'NONE',  ( -7.000000000000000000, 0.000000000000000000, 5.000000000000000000 ) ) ;
#20 = CIRCLE ( 'NONE', #81, 4.000000000000000000 ) ;
#21 = CARTESIAN_POINT ( 'NONE',  ( 0.000000000000000000, 0.000000000000000000, 0.000000000000000000 ) ) ;
#22 = APPROVAL ( #80, 'NEURÈENÝ' ) ;
#23 = CARTESIAN_POINT ( 'NONE',  ( -4.000000000000000000, 0.000000000000000000, 5.000000000000000000 ) ) ;
#24 = DIRECTION ( 'NONE',  ( -1.000000000000000000, 0.000000000000000000, 0.000000000000000000 ) ) ;
#25 = DIRECTION ( 'NONE',  ( 1.000000000000000000, 0.000000000000000000, 0.000000000000000000 ) ) ;
#26 = ORIENTED_EDGE ( 'NONE', *, *, #209, .F. ) ;
#27 = PERSON_AND_ORGANIZATION_ROLE ( 'classification_officer' ) ;
#28 = ORIENTED_EDGE ( 'NONE', *, *, #155, .T. ) ;
#29 = AXIS2_PLACEMENT_3D ( 'NONE', #16, #231, #138 ) ;
#30 = PERSON_AND_ORGANIZATION ( #128, #95 ) ;
#31 = ADVANCED_FACE ( 'NONE', ( #124 ), #237, .F. ) ;
#32 = DATE_TIME_ROLE ( 'classification_date' ) ;
#33 = PERSON_AND_ORGANIZATION_ROLE ( 'design_owner' ) ;
#34 = LOCAL_TIME ( 13, 56, 1.000000000000000000, #54 ) ;
#35 = PERSON_AND_ORGANIZATION ( #128, #95 ) ;
#36 = EDGE_CURVE ( 'NONE', #192, #137, #12, .T. ) ;
#37 = CARTESIAN_POINT ( 'NONE',  ( 0.000000000000000000, 0.000000000000000000, 0.000000000000000000 ) ) ;
#38 = UNCERTAINTY_MEASURE_WITH_UNIT (LENGTH_MEASURE( 1.000000000000000082E-05 ), #173, 'distance_accuracy_value', 'NONE');
#39 = AXIS2_PLACEMENT_3D ( 'NONE', #94, #243, #108 ) ;
#40 = DIRECTION ( 'NONE',  ( -0.000000000000000000, -0.000000000000000000, -1.000000000000000000 ) ) ;
#41 = PLANE ( 'NONE',  #159 ) ;
#42 = CARTESIAN_POINT ( 'NONE',  ( 0.000000000000000000, 0.000000000000000000, 5.000000000000000000 ) ) ;
#43 = DIRECTION ( 'NONE',  ( -0.000000000000000000, -0.000000000000000000, -1.000000000000000000 ) ) ;
#44 = DIRECTION ( 'NONE',  ( -1.000000000000000000, 0.000000000000000000, 0.000000000000000000 ) ) ;
#45 = CIRCLE ( 'NONE', #196, 7.000000000000000000 ) ;
#46 = ORIENTED_EDGE ( 'NONE', *, *, #36, .F. ) ;
#47 = DIRECTION ( 'NONE',  ( 0.000000000000000000, 0.000000000000000000, 1.000000000000000000 ) ) ;
#48 = DIRECTION ( 'NONE',  ( 0.000000000000000000, 0.000000000000000000, 1.000000000000000000 ) ) ;
#49 = CARTESIAN_POINT ( 'NONE',  ( 4.000000000000000000, 4.898587196589412829E-16, 5.000000000000000000 ) ) ;
#50 = CARTESIAN_POINT ( 'NONE',  ( 7.000000000000000000, 8.572527594031473190E-16, 5.000000000000000000 ) ) ;
#51 = ORIENTED_EDGE ( 'NONE', *, *, #104, .F. ) ;
#52 = CC_DESIGN_PERSON_AND_ORGANIZATION_ASSIGNMENT ( #117, #136, ( #217 ) ) ;
#53 = ORIENTED_EDGE ( 'NONE', *, *, #3, .F. ) ;
#54 = COORDINATED_UNIVERSAL_TIME_OFFSET ( 1, 0, .AHEAD. ) ;
#55 = PERSON_AND_ORGANIZATION_ROLE ( 'creator' ) ;
#56 = AXIS2_PLACEMENT_3D ( 'NONE', #21, #100, #101 ) ;
#57 = SHAPE_DEFINITION_REPRESENTATION ( #135, #250 ) ;
#58 = APPROVAL_PERSON_ORGANIZATION ( #11, #116, #13 ) ;
#59 = DIRECTION ( 'NONE',  ( 1.000000000000000000, 0.000000000000000000, 0.000000000000000000 ) ) ;
#60 = DIRECTION ( 'NONE',  ( 1.000000000000000000, 0.000000000000000000, 0.000000000000000000 ) ) ;
#61 = AXIS2_PLACEMENT_3D ( 'NONE', #133, #47, #25 ) ;
#62 = FACE_BOUND ( 'NONE', #208, .T. ) ;
#63 = EDGE_CURVE ( 'NONE', #212, #137, #66, .T. ) ;
#64 = CC_DESIGN_PERSON_AND_ORGANIZATION_ASSIGNMENT ( #228, #14, ( #217 ) ) ;
#65 = CARTESIAN_POINT ( 'NONE',  ( -7.000000000000000000, 0.000000000000000000, 0.000000000000000000 ) ) ;
#66 = LINE ( 'NONE', #182, #162 ) ;
#67 = DIRECTION ( 'NONE',  ( 1.000000000000000000, 0.000000000000000000, 0.000000000000000000 ) ) ;
#68 = ORIENTED_EDGE ( 'NONE', *, *, #82, .F. ) ;
#69 = EDGE_LOOP ( 'NONE', ( #193, #190, #246, #114 ) ) ;
#70 = FACE_OUTER_BOUND ( 'NONE', #131, .T. ) ;
#71 = CARTESIAN_POINT ( 'NONE',  ( 4.000000000000000000, 4.898587196589412829E-16, 800.0000000000000000 ) ) ;
#72 = ORIENTED_EDGE ( 'NONE', *, *, #119, .T. ) ;
#73 = EDGE_CURVE ( 'NONE', #212, #10, #45, .T. ) ;
#74 = PRODUCT_DEFINITION ( 'NEZNÁMÝ', '', #217, #171 ) ;
#75 = DATE_AND_TIME ( #178, #106 ) ;
#76 = CALENDAR_DATE ( 2023, 13, 2 ) ;
#77 = CC_DESIGN_PERSON_AND_ORGANIZATION_ASSIGNMENT ( #99, #55, ( #74 ) ) ;
#78 = LOCAL_TIME ( 13, 56, 1.000000000000000000, #115 ) ;
#79 = SECURITY_CLASSIFICATION ( '', '', #213 ) ;
#80 = APPROVAL_STATUS ( 'not_yet_approved' ) ;
#81 = AXIS2_PLACEMENT_3D ( 'NONE', #169, #188, #67 ) ;
#82 = EDGE_CURVE ( 'NONE', #7, #8, #218, .T. ) ;
#83 = VECTOR ( 'NONE', #40, 1000.000000000000000 ) ;
#84 = PRODUCT_RELATED_PRODUCT_CATEGORY ( 'detail', '', ( #151 ) ) ;
#85 = DIRECTION ( 'NONE',  ( -0.000000000000000000, -0.000000000000000000, -1.000000000000000000 ) ) ;
#86 = DIRECTION ( 'NONE',  ( -0.000000000000000000, -0.000000000000000000, -1.000000000000000000 ) ) ;
#87 = ORIENTED_EDGE ( 'NONE', *, *, #122, .F. ) ;
#88 = PLANE ( 'NONE',  #39 ) ;
#89 = CIRCLE ( 'NONE', #167, 7.000000000000000000 ) ;
#90 = EDGE_LOOP ( 'NONE', ( #214, #222 ) ) ;
#91 = FACE_OUTER_BOUND ( 'NONE', #9, .T. ) ;
#92 = APPROVAL ( #154, 'NEURÈENÝ' ) ;
#93 = ORIENTED_EDGE ( 'NONE', *, *, #82, .T. ) ;
#94 = CARTESIAN_POINT ( 'NONE',  ( 0.000000000000000000, 0.000000000000000000, 800.0000000000000000 ) ) ;
#95 = ORGANIZATION ( 'NEURÈENÝ', 'NEURÈENÝ', '' ) ;
#96 = CLOSED_SHELL ( 'NONE', ( #216, #152, #242, #139, #31, #197, #207 ) ) ;
#97 =( NAMED_UNIT ( * ) SI_UNIT ( $, .STERADIAN. ) SOLID_ANGLE_UNIT ( ) );
#98 = DATE_AND_TIME ( #76, #181 ) ;
#99 = PERSON_AND_ORGANIZATION ( #128, #95 ) ;
#100 = DIRECTION ( 'NONE',  ( 0.000000000000000000, 0.000000000000000000, 1.000000000000000000 ) ) ;
#101 = DIRECTION ( 'NONE',  ( 1.000000000000000000, 0.000000000000000000, 0.000000000000000000 ) ) ;
#102 = AXIS2_PLACEMENT_3D ( 'NONE', #17, #18, #236 ) ;
#103 = DIRECTION ( 'NONE',  ( -0.000000000000000000, -0.000000000000000000, -1.000000000000000000 ) ) ;
#104 = EDGE_CURVE ( 'NONE', #10, #212, #89, .T. ) ;
#105 = CARTESIAN_POINT ( 'NONE',  ( 7.000000000000000000, 8.572527594031473190E-16, 0.000000000000000000 ) ) ;
#106 = LOCAL_TIME ( 13, 56, 1.000000000000000000, #175 ) ;
#107 = DIRECTION ( 'NONE',  ( -0.000000000000000000, -0.000000000000000000, -1.000000000000000000 ) ) ;
#108 = DIRECTION ( 'NONE',  ( 1.000000000000000000, 0.000000000000000000, -0.000000000000000000 ) ) ;
#109 =( NAMED_UNIT ( * ) PLANE_ANGLE_UNIT ( ) SI_UNIT ( $, .RADIAN. ) );
#110 = ORIENTED_EDGE ( 'NONE', *, *, #73, .T. ) ;
#111 = CC_DESIGN_SECURITY_CLASSIFICATION ( #79, ( #217 ) ) ;
#112 = ORIENTED_EDGE ( 'NONE', *, *, #241, .F. ) ;
#113 = CYLINDRICAL_SURFACE ( 'NONE', #149, 7.000000000000000000 ) ;
#114 = ORIENTED_EDGE ( 'NONE', *, *, #119, .F. ) ;
#115 = COORDINATED_UNIVERSAL_TIME_OFFSET ( 1, 0, .AHEAD. ) ;
#116 = APPROVAL ( #177, 'NEURÈENÝ' ) ;
#117 = PERSON_AND_ORGANIZATION ( #128, #95 ) ;
#118 = COORDINATED_UNIVERSAL_TIME_OFFSET ( 1, 0, .AHEAD. ) ;
#119 = EDGE_CURVE ( 'NONE', #10, #192, #233, .T. ) ;
#120 = APPLICATION_PROTOCOL_DEFINITION ( 'international standard', 'config_control_design', 1994, #247 ) ;
#121 = PERSON_AND_ORGANIZATION ( #128, #95 ) ;
#122 = EDGE_CURVE ( 'NONE', #225, #8, #230, .T. ) ;
#123 = CARTESIAN_POINT ( 'NONE',  ( 0.000000000000000000, 0.000000000000000000, 5.000000000000000000 ) ) ;
#124 = FACE_OUTER_BOUND ( 'NONE', #174, .T. ) ;
#125 = DIRECTION ( 'NONE',  ( 0.000000000000000000, 0.000000000000000000, 1.000000000000000000 ) ) ;
#126 = AXIS2_PLACEMENT_3D ( 'NONE', #123, #144, #59 ) ;
#127 = DIRECTION ( 'NONE',  ( 1.000000000000000000, 0.000000000000000000, -0.000000000000000000 ) ) ;
#128 = PERSON ( 'NEURÈENÝ', 'NEURÈENÝ', 'NEURÈENÝ', ('NEURÈENÝ'), ('NEURÈENÝ'), ('NEURÈENÝ') ) ;
#129 = APPROVAL_PERSON_ORGANIZATION ( #30, #92, #226 ) ;
#130 = CIRCLE ( 'NONE', #255, 7.000000000000000000 ) ;
#131 = EDGE_LOOP ( 'NONE', ( #189, #51, #72, #134 ) ) ;
#132 = ORIENTED_EDGE ( 'NONE', *, *, #122, .T. ) ;
#133 = CARTESIAN_POINT ( 'NONE',  ( 0.000000000000000000, 0.000000000000000000, 5.000000000000000000 ) ) ;
#134 = ORIENTED_EDGE ( 'NONE', *, *, #36, .T. ) ;
#135 = PRODUCT_DEFINITION_SHAPE ( 'NONE', 'NONE',  #74 ) ;
#136 = PERSON_AND_ORGANIZATION_ROLE ( 'design_supplier' ) ;
#137 = VERTEX_POINT ( 'NONE', #105 ) ;
#138 = DIRECTION ( 'NONE',  ( 1.000000000000000000, 0.000000000000000000, 0.000000000000000000 ) ) ;
#139 = ADVANCED_FACE ( 'NONE', ( #62, #2 ), #41, .T. ) ;
#140 = DATE_TIME_ROLE ( 'creation_date' ) ;
#141 = APPLICATION_PROTOCOL_DEFINITION ( 'international standard', 'config_control_design', 1994, #210 ) ;
#142 = CC_DESIGN_APPROVAL ( #116, ( #79 ) ) ;
#143 = CARTESIAN_POINT ( 'NONE',  ( 0.000000000000000000, 0.000000000000000000, 5.000000000000000000 ) ) ;
#144 = DIRECTION ( 'NONE',  ( 0.000000000000000000, 0.000000000000000000, 1.000000000000000000 ) ) ;
#145 = FACE_OUTER_BOUND ( 'NONE', #240, .T. ) ;
#146 = DIRECTION ( 'NONE',  ( 1.000000000000000000, 0.000000000000000000, 0.000000000000000000 ) ) ;
#147 =( GEOMETRIC_REPRESENTATION_CONTEXT ( 3 ) GLOBAL_UNCERTAINTY_ASSIGNED_CONTEXT ( ( #38 ) ) GLOBAL_UNIT_ASSIGNED_CONTEXT ( ( #173, #109, #97 ) ) REPRESENTATION_CONTEXT ( 'NONE', 'WORKASPACE' ) );
#148 = ORIENTED_EDGE ( 'NONE', *, *, #155, .F. ) ;
#149 = AXIS2_PLACEMENT_3D ( 'NONE', #5, #43, #24 ) ;
#150 = CYLINDRICAL_SURFACE ( 'NONE', #166, 4.000000000000000000 ) ;
#151 = PRODUCT ( '28cf', '28cf', '', ( #156 ) ) ;
#152 = ADVANCED_FACE ( 'NONE', ( #204 ), #187, .T. ) ;
#153 = DATE_AND_TIME ( #179, #34 ) ;
#154 = APPROVAL_STATUS ( 'not_yet_approved' ) ;
#155 = EDGE_CURVE ( 'NONE', #249, #225, #206, .T. ) ;
#156 = MECHANICAL_CONTEXT ( 'NONE', #210, 'mechanical' ) ;
#157 = CC_DESIGN_APPROVAL ( #22, ( #74 ) ) ;
#158 = APPROVAL_DATE_TIME ( #75, #92 ) ;
#159 = AXIS2_PLACEMENT_3D ( 'NONE', #42, #201, #127 ) ;
#160 = CARTESIAN_POINT ( 'NONE',  ( -7.000000000000000000, 0.000000000000000000, 5.000000000000000000 ) ) ;
#161 = DIRECTION ( 'NONE',  ( 1.000000000000000000, 0.000000000000000000, 0.000000000000000000 ) ) ;
#162 = VECTOR ( 'NONE', #107, 1000.000000000000000 ) ;
#163 = CARTESIAN_POINT ( 'NONE',  ( -4.000000000000000000, 0.000000000000000000, 800.0000000000000000 ) ) ;
#164 = DIRECTION ( 'NONE',  ( -1.000000000000000000, 0.000000000000000000, 0.000000000000000000 ) ) ;
#165 = CARTESIAN_POINT ( 'NONE',  ( -4.000000000000000000, 0.000000000000000000, 800.0000000000000000 ) ) ;
#166 = AXIS2_PLACEMENT_3D ( 'NONE', #224, #211, #44 ) ;
#167 = AXIS2_PLACEMENT_3D ( 'NONE', #202, #184, #161 ) ;
#168 = CC_DESIGN_DATE_AND_TIME_ASSIGNMENT ( #194, #32, ( #79 ) ) ;
#169 = CARTESIAN_POINT ( 'NONE',  ( 0.000000000000000000, 0.000000000000000000, 800.0000000000000000 ) ) ;
#170 = CARTESIAN_POINT ( 'NONE',  ( 0.000000000000000000, 0.000000000000000000, 800.0000000000000000 ) ) ;
#171 = DESIGN_CONTEXT ( 'detailed design', #247, 'design' ) ;
#172 = EDGE_LOOP ( 'NONE', ( #244, #110 ) ) ;
#173 =( LENGTH_UNIT ( ) NAMED_UNIT ( * ) SI_UNIT ( .MILLI., .METRE. ) );
#174 = EDGE_LOOP ( 'NONE', ( #46, #227 ) ) ;
#175 = COORDINATED_UNIVERSAL_TIME_OFFSET ( 1, 0, .AHEAD. ) ;
#176 = DATE_AND_TIME ( #253, #186 ) ;
#177 = APPROVAL_STATUS ( 'not_yet_approved' ) ;
#178 = CALENDAR_DATE ( 2023, 13, 2 ) ;
#179 = CALENDAR_DATE ( 2023, 13, 2 ) ;
#180 = CARTESIAN_POINT ( 'NONE',  ( 4.000000000000000000, 4.898587196589412829E-16, 800.0000000000000000 ) ) ;
#181 = LOCAL_TIME ( 13, 56, 1.000000000000000000, #200 ) ;
#182 = CARTESIAN_POINT ( 'NONE',  ( 7.000000000000000000, 8.572527594031473190E-16, 5.000000000000000000 ) ) ;
#183 = CIRCLE ( 'NONE', #234, 4.000000000000000000 ) ;
#184 = DIRECTION ( 'NONE',  ( 0.000000000000000000, 0.000000000000000000, 1.000000000000000000 ) ) ;
#185 = CARTESIAN_POINT ( 'NONE',  ( 0.000000000000000000, 0.000000000000000000, 5.000000000000000000 ) ) ;
#186 = LOCAL_TIME ( 13, 56, 1.000000000000000000, #118 ) ;
#187 = CYLINDRICAL_SURFACE ( 'NONE', #229, 7.000000000000000000 ) ;
#188 = DIRECTION ( 'NONE',  ( 0.000000000000000000, 0.000000000000000000, 1.000000000000000000 ) ) ;
#189 = ORIENTED_EDGE ( 'NONE', *, *, #63, .F. ) ;
#190 = ORIENTED_EDGE ( 'NONE', *, *, #63, .T. ) ;
#191 = AXIS2_PLACEMENT_3D ( 'NONE', #220, #86, #164 ) ;
#192 = VERTEX_POINT ( 'NONE', #65 ) ;
#193 = ORIENTED_EDGE ( 'NONE', *, *, #73, .F. ) ;
#194 = DATE_AND_TIME ( #215, #78 ) ;
#195 = PERSON_AND_ORGANIZATION ( #128, #95 ) ;
#196 = AXIS2_PLACEMENT_3D ( 'NONE', #143, #125, #146 ) ;
#197 = ADVANCED_FACE ( 'NONE', ( #145 ), #4, .T. ) ;
#198 = CC_DESIGN_DATE_AND_TIME_ASSIGNMENT ( #153, #140, ( #74 ) ) ;
#199 = APPROVAL_DATE_TIME ( #176, #116 ) ;
#200 = COORDINATED_UNIVERSAL_TIME_OFFSET ( 1, 0, .AHEAD. ) ;
#201 = DIRECTION ( 'NONE',  ( 0.000000000000000000, 0.000000000000000000, 1.000000000000000000 ) ) ;
#202 = CARTESIAN_POINT ( 'NONE',  ( 0.000000000000000000, 0.000000000000000000, 5.000000000000000000 ) ) ;
#203 = VECTOR ( 'NONE', #103, 1000.000000000000000 ) ;
#204 = FACE_OUTER_BOUND ( 'NONE', #69, .T. ) ;
#205 = CC_DESIGN_PERSON_AND_ORGANIZATION_ASSIGNMENT ( #35, #33, ( #151 ) ) ;
#206 = LINE ( 'NONE', #163, #221 ) ;
#207 = ADVANCED_FACE ( 'NONE', ( #239 ), #88, .T. ) ;
#208 = EDGE_LOOP ( 'NONE', ( #87, #112 ) ) ;
#209 = EDGE_CURVE ( 'NONE', #249, #7, #20, .T. ) ;
#210 = APPLICATION_CONTEXT ( 'configuration controlled 3d designs of mechanical parts and assemblies' ) ;
#211 = DIRECTION ( 'NONE',  ( -0.000000000000000000, -0.000000000000000000, -1.000000000000000000 ) ) ;
#212 = VERTEX_POINT ( 'NONE', #50 ) ;
#213 = SECURITY_CLASSIFICATION_LEVEL ( 'unclassified' ) ;
#214 = ORIENTED_EDGE ( 'NONE', *, *, #209, .T. ) ;
#215 = CALENDAR_DATE ( 2023, 13, 2 ) ;
#216 = ADVANCED_FACE ( 'NONE', ( #91 ), #150, .T. ) ;
#217 = PRODUCT_DEFINITION_FORMATION_WITH_SPECIFIED_SOURCE ( 'LIBOVOLNÝ', '', #151, .NOT_KNOWN. ) ;
#218 = LINE ( 'NONE', #180, #83 ) ;
#219 = DIRECTION ( 'NONE',  ( 0.000000000000000000, 0.000000000000000000, 1.000000000000000000 ) ) ;
#220 = CARTESIAN_POINT ( 'NONE',  ( 0.000000000000000000, 0.000000000000000000, 800.0000000000000000 ) ) ;
#221 = VECTOR ( 'NONE', #238, 1000.000000000000000 ) ;
#222 = ORIENTED_EDGE ( 'NONE', *, *, #3, .T. ) ;
#223 = APPROVAL_PERSON_ORGANIZATION ( #121, #22, #251 ) ;
#224 = CARTESIAN_POINT ( 'NONE',  ( 0.000000000000000000, 0.000000000000000000, 800.0000000000000000 ) ) ;
#225 = VERTEX_POINT ( 'NONE', #23 ) ;
#226 = APPROVAL_ROLE ( '' ) ;
#227 = ORIENTED_EDGE ( 'NONE', *, *, #15, .F. ) ;
#228 = PERSON_AND_ORGANIZATION ( #128, #95 ) ;
#229 = AXIS2_PLACEMENT_3D ( 'NONE', #185, #85, #1 ) ;
#230 = CIRCLE ( 'NONE', #126, 4.000000000000000000 ) ;
#231 = DIRECTION ( 'NONE',  ( 0.000000000000000000, 0.000000000000000000, 1.000000000000000000 ) ) ;
#232 = CIRCLE ( 'NONE', #61, 4.000000000000000000 ) ;
#233 = LINE ( 'NONE', #19, #203 ) ;
#234 = AXIS2_PLACEMENT_3D ( 'NONE', #170, #48, #245 ) ;
#235 = MANIFOLD_SOLID_BREP ( 'Pøidat vysunutím3', #96 ) ;
#236 = DIRECTION ( 'NONE',  ( 1.000000000000000000, 0.000000000000000000, -0.000000000000000000 ) ) ;
#237 = PLANE ( 'NONE',  #102 ) ;
#238 = DIRECTION ( 'NONE',  ( -0.000000000000000000, -0.000000000000000000, -1.000000000000000000 ) ) ;
#239 = FACE_OUTER_BOUND ( 'NONE', #90, .T. ) ;
#240 = EDGE_LOOP ( 'NONE', ( #68, #26, #28, #132 ) ) ;
#241 = EDGE_CURVE ( 'NONE', #8, #225, #232, .T. ) ;
#242 = ADVANCED_FACE ( 'NONE', ( #70 ), #113, .T. ) ;
#243 = DIRECTION ( 'NONE',  ( 0.000000000000000000, 0.000000000000000000, 1.000000000000000000 ) ) ;
#244 = ORIENTED_EDGE ( 'NONE', *, *, #104, .T. ) ;
#245 = DIRECTION ( 'NONE',  ( 1.000000000000000000, 0.000000000000000000, 0.000000000000000000 ) ) ;
#246 = ORIENTED_EDGE ( 'NONE', *, *, #15, .T. ) ;
#247 = APPLICATION_CONTEXT ( 'configuration controlled 3d designs of mechanical parts and assemblies' ) ;
#248 = CC_DESIGN_APPROVAL ( #92, ( #217 ) ) ;
#249 = VERTEX_POINT ( 'NONE', #165 ) ;
#250 = ADVANCED_BREP_SHAPE_REPRESENTATION ( '28cf', ( #235, #29 ), #147 ) ;
#251 = APPROVAL_ROLE ( '' ) ;
#252 = CC_DESIGN_PERSON_AND_ORGANIZATION_ASSIGNMENT ( #195, #27, ( #79 ) ) ;
#253 = CALENDAR_DATE ( 2023, 13, 2 ) ;
#254 = APPROVAL_DATE_TIME ( #98, #22 ) ;
#255 = AXIS2_PLACEMENT_3D ( 'NONE', #37, #219, #60 ) ;
ENDSEC;
END-ISO-10303-21;
