ISO-10303-21;
HEADER;
FILE_DESCRIPTION (( 'STEP AP203' ),
    '1' );
FILE_NAME ('a22e.STEP',
    '2023-02-13T15:03:47',
    ( '' ),
    ( '' ),
    'SwSTEP 2.0',
    'SolidWorks 2019',
    '' );
FILE_SCHEMA (( 'CONFIG_CONTROL_DESIGN' ));
ENDSEC;

DATA;
#1 = DIRECTION ( 'NONE',  ( -0.000000000000000000, -0.000000000000000000, -1.000000000000000000 ) ) ;
#2 = DATE_TIME_ROLE ( 'classification_date' ) ;
#3 = FACE_OUTER_BOUND ( 'NONE', #253, .T. ) ;
#4 = AXIS2_PLACEMENT_3D ( 'NONE', #6, #65, #64 ) ;
#5 = COORDINATED_UNIVERSAL_TIME_OFFSET ( 1, 0, .AHEAD. ) ;
#6 = CARTESIAN_POINT ( 'NONE',  ( 0.000000000000000000, 0.000000000000000000, 3.000000000000000000 ) ) ;
#7 = DIRECTION ( 'NONE',  ( 0.000000000000000000, 0.000000000000000000, 1.000000000000000000 ) ) ;
#8 = SECURITY_CLASSIFICATION_LEVEL ( 'unclassified' ) ;
#9 = DATE_AND_TIME ( #245, #80 ) ;
#10 = DIRECTION ( 'NONE',  ( 1.000000000000000000, 0.000000000000000000, 0.000000000000000000 ) ) ;
#11 = APPLICATION_CONTEXT ( 'configuration controlled 3d designs of mechanical parts and assemblies' ) ;
#12 = AXIS2_PLACEMENT_3D ( 'NONE', #87, #147, #82 ) ;
#13 = ORIENTED_EDGE ( 'NONE', *, *, #107, .T. ) ;
#14 = ORIENTED_EDGE ( 'NONE', *, *, #88, .T. ) ;
#15 = AXIS2_PLACEMENT_3D ( 'NONE', #222, #206, #102 ) ;
#16 = ORIENTED_EDGE ( 'NONE', *, *, #51, .T. ) ;
#17 = EDGE_CURVE ( 'NONE', #112, #137, #28, .T. ) ;
#18 = CYLINDRICAL_SURFACE ( 'NONE', #131, 2.250000000000000000 ) ;
#19 = DATE_AND_TIME ( #141, #69 ) ;
#20 = DIRECTION ( 'NONE',  ( 0.000000000000000000, 0.000000000000000000, 1.000000000000000000 ) ) ;
#21 = EDGE_CURVE ( 'NONE', #54, #162, #37, .T. ) ;
#22 = AXIS2_PLACEMENT_3D ( 'NONE', #99, #20, #98 ) ;
#23 = FACE_BOUND ( 'NONE', #218, .T. ) ;
#24 = PERSON_AND_ORGANIZATION ( #203, #121 ) ;
#25 = DIRECTION ( 'NONE',  ( -0.000000000000000000, -0.000000000000000000, -1.000000000000000000 ) ) ;
#26 = AXIS2_PLACEMENT_3D ( 'NONE', #230, #254, #178 ) ;
#27 = FACE_OUTER_BOUND ( 'NONE', #160, .T. ) ;
#28 = CIRCLE ( 'NONE', #26, 4.000000000000000000 ) ;
#29 = CYLINDRICAL_SURFACE ( 'NONE', #55, 4.000000000000000000 ) ;
#30 = CC_DESIGN_SECURITY_CLASSIFICATION ( #251, ( #75 ) ) ;
#31 = ADVANCED_FACE ( 'NONE', ( #73 ), #18, .T. ) ;
#32 = CARTESIAN_POINT ( 'NONE',  ( -2.250000000000000000, 0.000000000000000000, 500.0000000000000000 ) ) ;
#33 = CC_DESIGN_PERSON_AND_ORGANIZATION_ASSIGNMENT ( #71, #231, ( #81 ) ) ;
#34 = PERSON_AND_ORGANIZATION ( #203, #121 ) ;
#35 = CC_DESIGN_APPROVAL ( #133, ( #251 ) ) ;
#36 = ORIENTED_EDGE ( 'NONE', *, *, #21, .F. ) ;
#37 = LINE ( 'NONE', #157, #154 ) ;
#38 = VERTEX_POINT ( 'NONE', #158 ) ;
#39 = CARTESIAN_POINT ( 'NONE',  ( 4.000000000000000000, 4.898587196589412829E-16, 3.000000000000000000 ) ) ;
#40 = CARTESIAN_POINT ( 'NONE',  ( 0.000000000000000000, 0.000000000000000000, 3.000000000000000000 ) ) ;
#41 = DIRECTION ( 'NONE',  ( 1.000000000000000000, 0.000000000000000000, 0.000000000000000000 ) ) ;
#42 = DIRECTION ( 'NONE',  ( -1.000000000000000000, 0.000000000000000000, 0.000000000000000000 ) ) ;
#43 = APPROVAL_STATUS ( 'not_yet_approved' ) ;
#44 = CARTESIAN_POINT ( 'NONE',  ( 0.000000000000000000, 0.000000000000000000, 0.000000000000000000 ) ) ;
#45 = CC_DESIGN_APPROVAL ( #197, ( #75 ) ) ;
#46 = CARTESIAN_POINT ( 'NONE',  ( 0.000000000000000000, 0.000000000000000000, 0.000000000000000000 ) ) ;
#47 = AXIS2_PLACEMENT_3D ( 'NONE', #209, #7, #186 ) ;
#48 = EDGE_CURVE ( 'NONE', #252, #38, #136, .T. ) ;
#49 = CIRCLE ( 'NONE', #205, 2.250000000000000000 ) ;
#50 = ORIENTED_EDGE ( 'NONE', *, *, #74, .T. ) ;
#51 = EDGE_CURVE ( 'NONE', #162, #38, #92, .T. ) ;
#52 = EDGE_LOOP ( 'NONE', ( #195, #135 ) ) ;
#53 = CIRCLE ( 'NONE', #208, 4.000000000000000000 ) ;
#54 = VERTEX_POINT ( 'NONE', #224 ) ;
#55 = AXIS2_PLACEMENT_3D ( 'NONE', #119, #238, #42 ) ;
#56 = ORIENTED_EDGE ( 'NONE', *, *, #161, .T. ) ;
#57 = DIRECTION ( 'NONE',  ( 1.000000000000000000, 0.000000000000000000, 0.000000000000000000 ) ) ;
#58 = PERSON_AND_ORGANIZATION ( #203, #121 ) ;
#59 = PRODUCT_DEFINITION_SHAPE ( 'NONE', 'NONE',  #81 ) ;
#60 = PLANE ( 'NONE',  #15 ) ;
#61 = DIRECTION ( 'NONE',  ( 1.000000000000000000, 0.000000000000000000, 0.000000000000000000 ) ) ;
#62 = PERSON_AND_ORGANIZATION ( #203, #121 ) ;
#63 = CC_DESIGN_PERSON_AND_ORGANIZATION_ASSIGNMENT ( #34, #132, ( #174 ) ) ;
#64 = DIRECTION ( 'NONE',  ( -1.000000000000000000, 0.000000000000000000, 0.000000000000000000 ) ) ;
#65 = DIRECTION ( 'NONE',  ( -0.000000000000000000, -0.000000000000000000, -1.000000000000000000 ) ) ;
#66 = UNCERTAINTY_MEASURE_WITH_UNIT (LENGTH_MEASURE( 1.000000000000000082E-05 ), #213, 'distance_accuracy_value', 'NONE');
#67 = CIRCLE ( 'NONE', #172, 2.250000000000000000 ) ;
#68 = APPROVAL_ROLE ( '' ) ;
#69 = LOCAL_TIME ( 16, 3, 47.00000000000000000, #116 ) ;
#70 = ADVANCED_FACE ( 'NONE', ( #27 ), #244, .F. ) ;
#71 = PERSON_AND_ORGANIZATION ( #203, #121 ) ;
#72 = ORIENTED_EDGE ( 'NONE', *, *, #240, .F. ) ;
#73 = FACE_OUTER_BOUND ( 'NONE', #216, .T. ) ;
#74 = EDGE_CURVE ( 'NONE', #140, #250, #192, .T. ) ;
#75 = PRODUCT_DEFINITION_FORMATION_WITH_SPECIFIED_SOURCE ( 'LIBOVOLNÝ', '', #174, .NOT_KNOWN. ) ;
#76 = EDGE_LOOP ( 'NONE', ( #110, #95, #13, #50 ) ) ;
#77 = EDGE_LOOP ( 'NONE', ( #91, #14, #249, #179 ) ) ;
#78 = CARTESIAN_POINT ( 'NONE',  ( 0.000000000000000000, 0.000000000000000000, 500.0000000000000000 ) ) ;
#79 = COORDINATED_UNIVERSAL_TIME_OFFSET ( 1, 0, .AHEAD. ) ;
#80 = LOCAL_TIME ( 16, 3, 47.00000000000000000, #5 ) ;
#81 = PRODUCT_DEFINITION ( 'NEZNÁMÝ', '', #75, #151 ) ;
#82 = DIRECTION ( 'NONE',  ( 1.000000000000000000, 0.000000000000000000, -0.000000000000000000 ) ) ;
#83 = CYLINDRICAL_SURFACE ( 'NONE', #4, 4.000000000000000000 ) ;
#84 = AXIS2_PLACEMENT_3D ( 'NONE', #143, #86, #57 ) ;
#85 = PLANE ( 'NONE',  #22 ) ;
#86 = DIRECTION ( 'NONE',  ( 0.000000000000000000, 0.000000000000000000, 1.000000000000000000 ) ) ;
#87 = CARTESIAN_POINT ( 'NONE',  ( 0.000000000000000000, 0.000000000000000000, 0.000000000000000000 ) ) ;
#88 = EDGE_CURVE ( 'NONE', #137, #250, #142, .T. ) ;
#89 = CC_DESIGN_DATE_AND_TIME_ASSIGNMENT ( #9, #2, ( #251 ) ) ;
#90 = CIRCLE ( 'NONE', #242, 4.000000000000000000 ) ;
#91 = ORIENTED_EDGE ( 'NONE', *, *, #181, .F. ) ;
#92 = CIRCLE ( 'NONE', #47, 2.250000000000000000 ) ;
#93 = ORIENTED_EDGE ( 'NONE', *, *, #51, .F. ) ;
#94 = ORIENTED_EDGE ( 'NONE', *, *, #129, .F. ) ;
#95 = ORIENTED_EDGE ( 'NONE', *, *, #17, .F. ) ;
#96 = PERSON_AND_ORGANIZATION ( #203, #121 ) ;
#97 = CC_DESIGN_PERSON_AND_ORGANIZATION_ASSIGNMENT ( #223, #120, ( #251 ) ) ;
#98 = DIRECTION ( 'NONE',  ( 1.000000000000000000, 0.000000000000000000, -0.000000000000000000 ) ) ;
#99 = CARTESIAN_POINT ( 'NONE',  ( 0.000000000000000000, 0.000000000000000000, 500.0000000000000000 ) ) ;
#100 = PERSON_AND_ORGANIZATION_ROLE ( 'design_supplier' ) ;
#101 = CC_DESIGN_DATE_AND_TIME_ASSIGNMENT ( #19, #183, ( #81 ) ) ;
#102 = DIRECTION ( 'NONE',  ( 1.000000000000000000, 0.000000000000000000, -0.000000000000000000 ) ) ;
#103 = FACE_OUTER_BOUND ( 'NONE', #76, .T. ) ;
#104 = LOCAL_TIME ( 16, 3, 47.00000000000000000, #79 ) ;
#105 = DIRECTION ( 'NONE',  ( 1.000000000000000000, 0.000000000000000000, 0.000000000000000000 ) ) ;
#106 = APPLICATION_PROTOCOL_DEFINITION ( 'international standard', 'config_control_design', 1994, #11 ) ;
#107 = EDGE_CURVE ( 'NONE', #112, #140, #167, .T. ) ;
#108 = CALENDAR_DATE ( 2023, 13, 2 ) ;
#109 = COORDINATED_UNIVERSAL_TIME_OFFSET ( 1, 0, .AHEAD. ) ;
#110 = ORIENTED_EDGE ( 'NONE', *, *, #88, .F. ) ;
#111 = VECTOR ( 'NONE', #225, 1000.000000000000000 ) ;
#112 = VERTEX_POINT ( 'NONE', #243 ) ;
#113 =( GEOMETRIC_REPRESENTATION_CONTEXT ( 3 ) GLOBAL_UNCERTAINTY_ASSIGNED_CONTEXT ( ( #66 ) ) GLOBAL_UNIT_ASSIGNED_CONTEXT ( ( #213, #190, #246 ) ) REPRESENTATION_CONTEXT ( 'NONE', 'WORKASPACE' ) );
#114 = ORIENTED_EDGE ( 'NONE', *, *, #21, .T. ) ;
#115 = ADVANCED_FACE ( 'NONE', ( #168 ), #83, .T. ) ;
#116 = COORDINATED_UNIVERSAL_TIME_OFFSET ( 1, 0, .AHEAD. ) ;
#117 = CYLINDRICAL_SURFACE ( 'NONE', #159, 2.250000000000000000 ) ;
#118 = DATE_AND_TIME ( #220, #104 ) ;
#119 = CARTESIAN_POINT ( 'NONE',  ( 0.000000000000000000, 0.000000000000000000, 3.000000000000000000 ) ) ;
#120 = PERSON_AND_ORGANIZATION_ROLE ( 'classification_officer' ) ;
#121 = ORGANIZATION ( 'NEURÈENÝ', 'NEURÈENÝ', '' ) ;
#122 = DIRECTION ( 'NONE',  ( 1.000000000000000000, 0.000000000000000000, 0.000000000000000000 ) ) ;
#123 = MANIFOLD_SOLID_BREP ( 'Pøidat vysunutím3', #239 ) ;
#124 = CARTESIAN_POINT ( 'NONE',  ( 4.000000000000000000, 4.898587196589412829E-16, 0.000000000000000000 ) ) ;
#125 = DATE_AND_TIME ( #171, #139 ) ;
#126 = VECTOR ( 'NONE', #215, 1000.000000000000000 ) ;
#127 = DIRECTION ( 'NONE',  ( 0.000000000000000000, 0.000000000000000000, 1.000000000000000000 ) ) ;
#128 = CC_DESIGN_APPROVAL ( #193, ( #81 ) ) ;
#129 = EDGE_CURVE ( 'NONE', #250, #140, #53, .T. ) ;
#130 = CIRCLE ( 'NONE', #155, 2.250000000000000000 ) ;
#131 = AXIS2_PLACEMENT_3D ( 'NONE', #78, #163, #200 ) ;
#132 = PERSON_AND_ORGANIZATION_ROLE ( 'design_owner' ) ;
#133 = APPROVAL ( #43, 'NEURÈENÝ' ) ;
#134 = PRODUCT_RELATED_PRODUCT_CATEGORY ( 'detail', '', ( #174 ) ) ;
#135 = ORIENTED_EDGE ( 'NONE', *, *, #181, .T. ) ;
#136 = LINE ( 'NONE', #229, #126 ) ;
#137 = VERTEX_POINT ( 'NONE', #182 ) ;
#138 = CC_DESIGN_PERSON_AND_ORGANIZATION_ASSIGNMENT ( #58, #148, ( #75 ) ) ;
#139 = LOCAL_TIME ( 16, 3, 47.00000000000000000, #150 ) ;
#140 = VERTEX_POINT ( 'NONE', #144 ) ;
#141 = CALENDAR_DATE ( 2023, 13, 2 ) ;
#142 = LINE ( 'NONE', #39, #226 ) ;
#143 = CARTESIAN_POINT ( 'NONE',  ( 0.000000000000000000, 0.000000000000000000, 0.000000000000000000 ) ) ;
#144 = CARTESIAN_POINT ( 'NONE',  ( -4.000000000000000000, 0.000000000000000000, 0.000000000000000000 ) ) ;
#145 = APPROVAL_DATE_TIME ( #125, #133 ) ;
#146 = APPLICATION_CONTEXT ( 'configuration controlled 3d designs of mechanical parts and assemblies' ) ;
#147 = DIRECTION ( 'NONE',  ( 0.000000000000000000, 0.000000000000000000, 1.000000000000000000 ) ) ;
#148 = PERSON_AND_ORGANIZATION_ROLE ( 'creator' ) ;
#149 = CARTESIAN_POINT ( 'NONE',  ( 0.000000000000000000, 0.000000000000000000, 3.000000000000000000 ) ) ;
#150 = COORDINATED_UNIVERSAL_TIME_OFFSET ( 1, 0, .AHEAD. ) ;
#151 = DESIGN_CONTEXT ( 'detailed design', #146, 'design' ) ;
#152 = MECHANICAL_CONTEXT ( 'NONE', #11, 'mechanical' ) ;
#153 = ADVANCED_FACE ( 'NONE', ( #103 ), #29, .T. ) ;
#154 = VECTOR ( 'NONE', #214, 1000.000000000000000 ) ;
#155 = AXIS2_PLACEMENT_3D ( 'NONE', #149, #170, #105 ) ;
#156 = APPROVAL_STATUS ( 'not_yet_approved' ) ;
#157 = CARTESIAN_POINT ( 'NONE',  ( 2.250000000000000000, 2.755455298081543792E-16, 500.0000000000000000 ) ) ;
#158 = CARTESIAN_POINT ( 'NONE',  ( -2.250000000000000000, 0.000000000000000000, 3.000000000000000000 ) ) ;
#159 = AXIS2_PLACEMENT_3D ( 'NONE', #202, #25, #221 ) ;
#160 = EDGE_LOOP ( 'NONE', ( #176, #94 ) ) ;
#161 = EDGE_CURVE ( 'NONE', #38, #162, #130, .T. ) ;
#162 = VERTEX_POINT ( 'NONE', #207 ) ;
#163 = DIRECTION ( 'NONE',  ( -0.000000000000000000, -0.000000000000000000, -1.000000000000000000 ) ) ;
#164 = ADVANCED_BREP_SHAPE_REPRESENTATION ( 'a22e', ( #123, #199 ), #113 ) ;
#165 = DIRECTION ( 'NONE',  ( 0.000000000000000000, 0.000000000000000000, 1.000000000000000000 ) ) ;
#166 = CARTESIAN_POINT ( 'NONE',  ( -4.000000000000000000, 0.000000000000000000, 3.000000000000000000 ) ) ;
#167 = LINE ( 'NONE', #166, #111 ) ;
#168 = FACE_OUTER_BOUND ( 'NONE', #77, .T. ) ;
#169 = ADVANCED_FACE ( 'NONE', ( #189 ), #117, .T. ) ;
#170 = DIRECTION ( 'NONE',  ( 0.000000000000000000, 0.000000000000000000, 1.000000000000000000 ) ) ;
#171 = CALENDAR_DATE ( 2023, 13, 2 ) ;
#172 = AXIS2_PLACEMENT_3D ( 'NONE', #204, #165, #236 ) ;
#173 = ORIENTED_EDGE ( 'NONE', *, *, #187, .T. ) ;
#174 = PRODUCT ( 'a22e', 'a22e', '', ( #152 ) ) ;
#175 = EDGE_LOOP ( 'NONE', ( #36, #234, #219, #56 ) ) ;
#176 = ORIENTED_EDGE ( 'NONE', *, *, #74, .F. ) ;
#177 = ADVANCED_FACE ( 'NONE', ( #3 ), #85, .T. ) ;
#178 = DIRECTION ( 'NONE',  ( 1.000000000000000000, 0.000000000000000000, 0.000000000000000000 ) ) ;
#179 = ORIENTED_EDGE ( 'NONE', *, *, #107, .F. ) ;
#180 = APPROVAL_STATUS ( 'not_yet_approved' ) ;
#181 = EDGE_CURVE ( 'NONE', #137, #112, #90, .T. ) ;
#182 = CARTESIAN_POINT ( 'NONE',  ( 4.000000000000000000, 4.898587196589412829E-16, 3.000000000000000000 ) ) ;
#183 = DATE_TIME_ROLE ( 'creation_date' ) ;
#184 = FACE_OUTER_BOUND ( 'NONE', #52, .T. ) ;
#185 = CARTESIAN_POINT ( 'NONE',  ( 0.000000000000000000, 0.000000000000000000, 500.0000000000000000 ) ) ;
#186 = DIRECTION ( 'NONE',  ( 1.000000000000000000, 0.000000000000000000, 0.000000000000000000 ) ) ;
#187 = EDGE_CURVE ( 'NONE', #252, #54, #67, .T. ) ;
#188 = APPROVAL_PERSON_ORGANIZATION ( #191, #193, #228 ) ;
#189 = FACE_OUTER_BOUND ( 'NONE', #175, .T. ) ;
#190 =( NAMED_UNIT ( * ) PLANE_ANGLE_UNIT ( ) SI_UNIT ( $, .RADIAN. ) );
#191 = PERSON_AND_ORGANIZATION ( #203, #121 ) ;
#192 = CIRCLE ( 'NONE', #84, 4.000000000000000000 ) ;
#193 = APPROVAL ( #156, 'NEURÈENÝ' ) ;
#194 = DATE_AND_TIME ( #108, #233 ) ;
#195 = ORIENTED_EDGE ( 'NONE', *, *, #17, .T. ) ;
#196 = ORIENTED_EDGE ( 'NONE', *, *, #161, .F. ) ;
#197 = APPROVAL ( #180, 'NEURÈENÝ' ) ;
#198 = ORIENTED_EDGE ( 'NONE', *, *, #48, .F. ) ;
#199 = AXIS2_PLACEMENT_3D ( 'NONE', #46, #211, #10 ) ;
#200 = DIRECTION ( 'NONE',  ( -1.000000000000000000, 0.000000000000000000, 0.000000000000000000 ) ) ;
#201 = ORIENTED_EDGE ( 'NONE', *, *, #240, .T. ) ;
#202 = CARTESIAN_POINT ( 'NONE',  ( 0.000000000000000000, 0.000000000000000000, 500.0000000000000000 ) ) ;
#203 = PERSON ( 'NEURÈENÝ', 'NEURÈENÝ', 'NEURÈENÝ', ('NEURÈENÝ'), ('NEURÈENÝ'), ('NEURÈENÝ') ) ;
#204 = CARTESIAN_POINT ( 'NONE',  ( 0.000000000000000000, 0.000000000000000000, 500.0000000000000000 ) ) ;
#205 = AXIS2_PLACEMENT_3D ( 'NONE', #185, #241, #61 ) ;
#206 = DIRECTION ( 'NONE',  ( 0.000000000000000000, 0.000000000000000000, 1.000000000000000000 ) ) ;
#207 = CARTESIAN_POINT ( 'NONE',  ( 2.250000000000000000, 2.755455298081543792E-16, 3.000000000000000000 ) ) ;
#208 = AXIS2_PLACEMENT_3D ( 'NONE', #44, #127, #41 ) ;
#209 = CARTESIAN_POINT ( 'NONE',  ( 0.000000000000000000, 0.000000000000000000, 3.000000000000000000 ) ) ;
#210 = SHAPE_DEFINITION_REPRESENTATION ( #59, #164 ) ;
#211 = DIRECTION ( 'NONE',  ( 0.000000000000000000, 0.000000000000000000, 1.000000000000000000 ) ) ;
#212 = APPLICATION_PROTOCOL_DEFINITION ( 'international standard', 'config_control_design', 1994, #146 ) ;
#213 =( LENGTH_UNIT ( ) NAMED_UNIT ( * ) SI_UNIT ( .MILLI., .METRE. ) );
#214 = DIRECTION ( 'NONE',  ( -0.000000000000000000, -0.000000000000000000, -1.000000000000000000 ) ) ;
#215 = DIRECTION ( 'NONE',  ( -0.000000000000000000, -0.000000000000000000, -1.000000000000000000 ) ) ;
#216 = EDGE_LOOP ( 'NONE', ( #72, #114, #16, #198 ) ) ;
#217 = APPROVAL_PERSON_ORGANIZATION ( #96, #197, #235 ) ;
#218 = EDGE_LOOP ( 'NONE', ( #196, #93 ) ) ;
#219 = ORIENTED_EDGE ( 'NONE', *, *, #48, .T. ) ;
#220 = CALENDAR_DATE ( 2023, 13, 2 ) ;
#221 = DIRECTION ( 'NONE',  ( -1.000000000000000000, 0.000000000000000000, 0.000000000000000000 ) ) ;
#222 = CARTESIAN_POINT ( 'NONE',  ( 0.000000000000000000, 0.000000000000000000, 3.000000000000000000 ) ) ;
#223 = PERSON_AND_ORGANIZATION ( #203, #121 ) ;
#224 = CARTESIAN_POINT ( 'NONE',  ( 2.250000000000000000, 2.755455298081543792E-16, 500.0000000000000000 ) ) ;
#225 = DIRECTION ( 'NONE',  ( -0.000000000000000000, -0.000000000000000000, -1.000000000000000000 ) ) ;
#226 = VECTOR ( 'NONE', #1, 1000.000000000000000 ) ;
#227 = CC_DESIGN_PERSON_AND_ORGANIZATION_ASSIGNMENT ( #62, #100, ( #75 ) ) ;
#228 = APPROVAL_ROLE ( '' ) ;
#229 = CARTESIAN_POINT ( 'NONE',  ( -2.250000000000000000, 0.000000000000000000, 500.0000000000000000 ) ) ;
#230 = CARTESIAN_POINT ( 'NONE',  ( 0.000000000000000000, 0.000000000000000000, 3.000000000000000000 ) ) ;
#231 = PERSON_AND_ORGANIZATION_ROLE ( 'creator' ) ;
#232 = ADVANCED_FACE ( 'NONE', ( #23, #184 ), #60, .T. ) ;
#233 = LOCAL_TIME ( 16, 3, 47.00000000000000000, #109 ) ;
#234 = ORIENTED_EDGE ( 'NONE', *, *, #187, .F. ) ;
#235 = APPROVAL_ROLE ( '' ) ;
#236 = DIRECTION ( 'NONE',  ( 1.000000000000000000, 0.000000000000000000, 0.000000000000000000 ) ) ;
#237 = APPROVAL_DATE_TIME ( #118, #197 ) ;
#238 = DIRECTION ( 'NONE',  ( -0.000000000000000000, -0.000000000000000000, -1.000000000000000000 ) ) ;
#239 = CLOSED_SHELL ( 'NONE', ( #31, #115, #153, #232, #70, #169, #177 ) ) ;
#240 = EDGE_CURVE ( 'NONE', #54, #252, #49, .T. ) ;
#241 = DIRECTION ( 'NONE',  ( 0.000000000000000000, 0.000000000000000000, 1.000000000000000000 ) ) ;
#242 = AXIS2_PLACEMENT_3D ( 'NONE', #40, #255, #122 ) ;
#243 = CARTESIAN_POINT ( 'NONE',  ( -4.000000000000000000, 0.000000000000000000, 3.000000000000000000 ) ) ;
#244 = PLANE ( 'NONE',  #12 ) ;
#245 = CALENDAR_DATE ( 2023, 13, 2 ) ;
#246 =( NAMED_UNIT ( * ) SI_UNIT ( $, .STERADIAN. ) SOLID_ANGLE_UNIT ( ) );
#247 = APPROVAL_PERSON_ORGANIZATION ( #24, #133, #68 ) ;
#248 = APPROVAL_DATE_TIME ( #194, #193 ) ;
#249 = ORIENTED_EDGE ( 'NONE', *, *, #129, .T. ) ;
#250 = VERTEX_POINT ( 'NONE', #124 ) ;
#251 = SECURITY_CLASSIFICATION ( '', '', #8 ) ;
#252 = VERTEX_POINT ( 'NONE', #32 ) ;
#253 = EDGE_LOOP ( 'NONE', ( #173, #201 ) ) ;
#254 = DIRECTION ( 'NONE',  ( 0.000000000000000000, 0.000000000000000000, 1.000000000000000000 ) ) ;
#255 = DIRECTION ( 'NONE',  ( 0.000000000000000000, 0.000000000000000000, 1.000000000000000000 ) ) ;
ENDSEC;
END-ISO-10303-21;
