ISO-10303-21;
HEADER;
FILE_DESCRIPTION (( 'STEP AP203' ),
    '1' );
FILE_NAME ('9292.STEP',
    '2023-02-13T12:54:59',
    ( '' ),
    ( '' ),
    'SwSTEP 2.0',
    'SolidWorks 2019',
    '' );
FILE_SCHEMA (( 'CONFIG_CONTROL_DESIGN' ));
ENDSEC;

DATA;
#1 = FACE_BOUND ( 'NONE', #43, .T. ) ;
#2 = MECHANICAL_CONTEXT ( 'NONE', #83, 'mechanical' ) ;
#3 = DIRECTION ( 'NONE',  ( 0.000000000000000000, 0.000000000000000000, 1.000000000000000000 ) ) ;
#4 = CARTESIAN_POINT ( 'NONE',  ( 7.000000000000000000, 8.572527594031473190E-16, 0.000000000000000000 ) ) ;
#5 = APPROVAL_STATUS ( 'not_yet_approved' ) ;
#6 = EDGE_CURVE ( 'NONE', #178, #248, #136, .T. ) ;
#7 = CARTESIAN_POINT ( 'NONE',  ( 0.000000000000000000, 0.000000000000000000, 5.000000000000000000 ) ) ;
#8 = APPROVAL_ROLE ( '' ) ;
#9 = EDGE_CURVE ( 'NONE', #221, #180, #104, .T. ) ;
#10 = CALENDAR_DATE ( 2023, 13, 2 ) ;
#11 = COORDINATED_UNIVERSAL_TIME_OFFSET ( 1, 0, .AHEAD. ) ;
#12 =( NAMED_UNIT ( * ) SI_UNIT ( $, .STERADIAN. ) SOLID_ANGLE_UNIT ( ) );
#13 = CARTESIAN_POINT ( 'NONE',  ( 0.000000000000000000, 0.000000000000000000, 5.000000000000000000 ) ) ;
#14 = CARTESIAN_POINT ( 'NONE',  ( 0.000000000000000000, 0.000000000000000000, 5.000000000000000000 ) ) ;
#15 = DIRECTION ( 'NONE',  ( -0.000000000000000000, -0.000000000000000000, -1.000000000000000000 ) ) ;
#16 = EDGE_LOOP ( 'NONE', ( #183, #224, #251, #255 ) ) ;
#17 = DIRECTION ( 'NONE',  ( 0.000000000000000000, 0.000000000000000000, 1.000000000000000000 ) ) ;
#18 = VECTOR ( 'NONE', #23, 1000.000000000000000 ) ;
#19 = DESIGN_CONTEXT ( 'detailed design', #192, 'design' ) ;
#20 = ORIENTED_EDGE ( 'NONE', *, *, #196, .F. ) ;
#21 = COORDINATED_UNIVERSAL_TIME_OFFSET ( 1, 0, .AHEAD. ) ;
#22 = ADVANCED_FACE ( 'NONE', ( #88 ), #169, .T. ) ;
#23 = DIRECTION ( 'NONE',  ( -0.000000000000000000, -0.000000000000000000, -1.000000000000000000 ) ) ;
#24 = AXIS2_PLACEMENT_3D ( 'NONE', #226, #99, #37 ) ;
#25 = CIRCLE ( 'NONE', #81, 7.000000000000000000 ) ;
#26 = EDGE_CURVE ( 'NONE', #205, #59, #166, .T. ) ;
#27 = CARTESIAN_POINT ( 'NONE',  ( -4.099999999999999645, 0.000000000000000000, 5.000000000000000000 ) ) ;
#28 = CARTESIAN_POINT ( 'NONE',  ( 0.000000000000000000, 0.000000000000000000, 160.0000000000000000 ) ) ;
#29 = APPLICATION_PROTOCOL_DEFINITION ( 'international standard', 'config_control_design', 1994, #83 ) ;
#30 = CC_DESIGN_PERSON_AND_ORGANIZATION_ASSIGNMENT ( #187, #39, ( #190 ) ) ;
#31 = AXIS2_PLACEMENT_3D ( 'NONE', #98, #182, #111 ) ;
#32 = CARTESIAN_POINT ( 'NONE',  ( -7.000000000000000000, 0.000000000000000000, 5.000000000000000000 ) ) ;
#33 = FACE_OUTER_BOUND ( 'NONE', #121, .T. ) ;
#34 = DIRECTION ( 'NONE',  ( 0.000000000000000000, 0.000000000000000000, 1.000000000000000000 ) ) ;
#35 = ORIENTED_EDGE ( 'NONE', *, *, #48, .T. ) ;
#36 = APPROVAL_PERSON_ORGANIZATION ( #101, #82, #70 ) ;
#37 = DIRECTION ( 'NONE',  ( 1.000000000000000000, 0.000000000000000000, 0.000000000000000000 ) ) ;
#38 = CARTESIAN_POINT ( 'NONE',  ( 0.000000000000000000, 0.000000000000000000, 5.000000000000000000 ) ) ;
#39 = PERSON_AND_ORGANIZATION_ROLE ( 'creator' ) ;
#40 = PERSON_AND_ORGANIZATION ( #66, #131 ) ;
#41 = SECURITY_CLASSIFICATION_LEVEL ( 'unclassified' ) ;
#42 = AXIS2_PLACEMENT_3D ( 'NONE', #244, #17, #240 ) ;
#43 = EDGE_LOOP ( 'NONE', ( #209, #44 ) ) ;
#44 = ORIENTED_EDGE ( 'NONE', *, *, #26, .F. ) ;
#45 = PRODUCT_RELATED_PRODUCT_CATEGORY ( 'detail', '', ( #208 ) ) ;
#46 = LOCAL_TIME ( 13, 54, 59.00000000000000000, #231 ) ;
#47 = LINE ( 'NONE', #152, #147 ) ;
#48 = EDGE_CURVE ( 'NONE', #59, #205, #249, .T. ) ;
#49 = DIRECTION ( 'NONE',  ( -0.000000000000000000, -0.000000000000000000, -1.000000000000000000 ) ) ;
#50 = VECTOR ( 'NONE', #15, 1000.000000000000000 ) ;
#51 = APPROVAL_ROLE ( '' ) ;
#52 = PLANE ( 'NONE',  #233 ) ;
#53 = EDGE_LOOP ( 'NONE', ( #189, #247 ) ) ;
#54 = AXIS2_PLACEMENT_3D ( 'NONE', #38, #123, #174 ) ;
#55 = MANIFOLD_SOLID_BREP ( 'Pøidat vysunutím3', #129 ) ;
#56 = APPROVAL_PERSON_ORGANIZATION ( #100, #204, #8 ) ;
#57 = LINE ( 'NONE', #162, #90 ) ;
#58 = COORDINATED_UNIVERSAL_TIME_OFFSET ( 1, 0, .AHEAD. ) ;
#59 = VERTEX_POINT ( 'NONE', #27 ) ;
#60 = CIRCLE ( 'NONE', #106, 7.000000000000000000 ) ;
#61 = CARTESIAN_POINT ( 'NONE',  ( 0.000000000000000000, 0.000000000000000000, 160.0000000000000000 ) ) ;
#62 = CALENDAR_DATE ( 2023, 13, 2 ) ;
#63 = PERSON_AND_ORGANIZATION_ROLE ( 'creator' ) ;
#64 = DATE_TIME_ROLE ( 'classification_date' ) ;
#65 = ORIENTED_EDGE ( 'NONE', *, *, #241, .F. ) ;
#66 = PERSON ( 'NEURÈENÝ', 'NEURÈENÝ', 'NEURÈENÝ', ('NEURÈENÝ'), ('NEURÈENÝ'), ('NEURÈENÝ') ) ;
#67 = DIRECTION ( 'NONE',  ( 1.000000000000000000, 0.000000000000000000, -0.000000000000000000 ) ) ;
#68 = PLANE ( 'NONE',  #108 ) ;
#69 =( GEOMETRIC_REPRESENTATION_CONTEXT ( 3 ) GLOBAL_UNCERTAINTY_ASSIGNED_CONTEXT ( ( #119 ) ) GLOBAL_UNIT_ASSIGNED_CONTEXT ( ( #193, #153, #12 ) ) REPRESENTATION_CONTEXT ( 'NONE', 'WORKASPACE' ) );
#70 = APPROVAL_ROLE ( '' ) ;
#71 = ADVANCED_FACE ( 'NONE', ( #235 ), #68, .T. ) ;
#72 = DIRECTION ( 'NONE',  ( 0.000000000000000000, 0.000000000000000000, 1.000000000000000000 ) ) ;
#73 = CARTESIAN_POINT ( 'NONE',  ( 0.000000000000000000, 0.000000000000000000, 0.000000000000000000 ) ) ;
#74 = CIRCLE ( 'NONE', #225, 7.000000000000000000 ) ;
#75 = CALENDAR_DATE ( 2023, 13, 2 ) ;
#76 = DIRECTION ( 'NONE',  ( 1.000000000000000000, 0.000000000000000000, 0.000000000000000000 ) ) ;
#77 = ORIENTED_EDGE ( 'NONE', *, *, #243, .F. ) ;
#78 = LOCAL_TIME ( 13, 54, 59.00000000000000000, #84 ) ;
#79 = DIRECTION ( 'NONE',  ( 1.000000000000000000, 0.000000000000000000, -0.000000000000000000 ) ) ;
#80 = DIRECTION ( 'NONE',  ( 0.000000000000000000, 0.000000000000000000, 1.000000000000000000 ) ) ;
#81 = AXIS2_PLACEMENT_3D ( 'NONE', #116, #34, #76 ) ;
#82 = APPROVAL ( #5, 'NEURÈENÝ' ) ;
#83 = APPLICATION_CONTEXT ( 'configuration controlled 3d designs of mechanical parts and assemblies' ) ;
#84 = COORDINATED_UNIVERSAL_TIME_OFFSET ( 1, 0, .AHEAD. ) ;
#85 = ORIENTED_EDGE ( 'NONE', *, *, #134, .T. ) ;
#86 = ORIENTED_EDGE ( 'NONE', *, *, #26, .T. ) ;
#87 = SHAPE_DEFINITION_REPRESENTATION ( #122, #125 ) ;
#88 = FACE_OUTER_BOUND ( 'NONE', #242, .T. ) ;
#89 = EDGE_CURVE ( 'NONE', #248, #205, #47, .T. ) ;
#90 = VECTOR ( 'NONE', #179, 1000.000000000000000 ) ;
#91 = CARTESIAN_POINT ( 'NONE',  ( 0.000000000000000000, 0.000000000000000000, 160.0000000000000000 ) ) ;
#92 = PLANE ( 'NONE',  #118 ) ;
#93 = CARTESIAN_POINT ( 'NONE',  ( 4.099999999999999645, 5.021051876504147385E-16, 160.0000000000000000 ) ) ;
#94 = ADVANCED_FACE ( 'NONE', ( #210 ), #92, .F. ) ;
#95 = EDGE_LOOP ( 'NONE', ( #126, #238 ) ) ;
#96 = AXIS2_PLACEMENT_3D ( 'NONE', #164, #49, #114 ) ;
#97 = CARTESIAN_POINT ( 'NONE',  ( 7.000000000000000000, 8.572527594031473190E-16, 5.000000000000000000 ) ) ;
#98 = CARTESIAN_POINT ( 'NONE',  ( 0.000000000000000000, 0.000000000000000000, 160.0000000000000000 ) ) ;
#99 = DIRECTION ( 'NONE',  ( 0.000000000000000000, 0.000000000000000000, 1.000000000000000000 ) ) ;
#100 = PERSON_AND_ORGANIZATION ( #66, #131 ) ;
#101 = PERSON_AND_ORGANIZATION ( #66, #131 ) ;
#102 = DIRECTION ( 'NONE',  ( -0.000000000000000000, -0.000000000000000000, -1.000000000000000000 ) ) ;
#103 = CC_DESIGN_APPROVAL ( #218, ( #223 ) ) ;
#104 = LINE ( 'NONE', #142, #18 ) ;
#105 = FACE_OUTER_BOUND ( 'NONE', #16, .T. ) ;
#106 = AXIS2_PLACEMENT_3D ( 'NONE', #113, #80, #222 ) ;
#107 = DIRECTION ( 'NONE',  ( -0.000000000000000000, -0.000000000000000000, -1.000000000000000000 ) ) ;
#108 = AXIS2_PLACEMENT_3D ( 'NONE', #91, #109, #67 ) ;
#109 = DIRECTION ( 'NONE',  ( 0.000000000000000000, 0.000000000000000000, 1.000000000000000000 ) ) ;
#110 = LOCAL_TIME ( 13, 54, 59.00000000000000000, #58 ) ;
#111 = DIRECTION ( 'NONE',  ( 1.000000000000000000, 0.000000000000000000, 0.000000000000000000 ) ) ;
#112 = CARTESIAN_POINT ( 'NONE',  ( 7.000000000000000000, 8.572527594031473190E-16, 5.000000000000000000 ) ) ;
#113 = CARTESIAN_POINT ( 'NONE',  ( 0.000000000000000000, 0.000000000000000000, 0.000000000000000000 ) ) ;
#114 = DIRECTION ( 'NONE',  ( -1.000000000000000000, 0.000000000000000000, 0.000000000000000000 ) ) ;
#115 = ADVANCED_FACE ( 'NONE', ( #105 ), #213, .T. ) ;
#116 = CARTESIAN_POINT ( 'NONE',  ( 0.000000000000000000, 0.000000000000000000, 5.000000000000000000 ) ) ;
#117 = CALENDAR_DATE ( 2023, 13, 2 ) ;
#118 = AXIS2_PLACEMENT_3D ( 'NONE', #195, #237, #154 ) ;
#119 = UNCERTAINTY_MEASURE_WITH_UNIT (LENGTH_MEASURE( 1.000000000000000082E-05 ), #193, 'distance_accuracy_value', 'NONE');
#120 = ORIENTED_EDGE ( 'NONE', *, *, #9, .T. ) ;
#121 = EDGE_LOOP ( 'NONE', ( #77, #217, #120, #150 ) ) ;
#122 = PRODUCT_DEFINITION_SHAPE ( 'NONE', 'NONE',  #223 ) ;
#123 = DIRECTION ( 'NONE',  ( 0.000000000000000000, 0.000000000000000000, 1.000000000000000000 ) ) ;
#124 = PERSON_AND_ORGANIZATION ( #66, #131 ) ;
#125 = ADVANCED_BREP_SHAPE_REPRESENTATION ( '9292', ( #55, #253 ), #69 ) ;
#126 = ORIENTED_EDGE ( 'NONE', *, *, #211, .F. ) ;
#127 = ADVANCED_FACE ( 'NONE', ( #132 ), #151, .T. ) ;
#128 = CALENDAR_DATE ( 2023, 13, 2 ) ;
#129 = CLOSED_SHELL ( 'NONE', ( #22, #115, #177, #254, #94, #127, #71 ) ) ;
#130 = CC_DESIGN_DATE_AND_TIME_ASSIGNMENT ( #165, #64, ( #172 ) ) ;
#131 = ORGANIZATION ( 'NEURÈENÝ', 'NEURÈENÝ', '' ) ;
#132 = FACE_OUTER_BOUND ( 'NONE', #135, .T. ) ;
#133 = APPLICATION_PROTOCOL_DEFINITION ( 'international standard', 'config_control_design', 1994, #192 ) ;
#134 = EDGE_CURVE ( 'NONE', #160, #221, #74, .T. ) ;
#135 = EDGE_LOOP ( 'NONE', ( #176, #138, #146, #35 ) ) ;
#136 = CIRCLE ( 'NONE', #24, 4.099999999999999645 ) ;
#137 = CC_DESIGN_APPROVAL ( #82, ( #190 ) ) ;
#138 = ORIENTED_EDGE ( 'NONE', *, *, #6, .F. ) ;
#139 = DIRECTION ( 'NONE',  ( 0.000000000000000000, 0.000000000000000000, 1.000000000000000000 ) ) ;
#140 = APPROVAL_DATE_TIME ( #207, #204 ) ;
#141 = DATE_AND_TIME ( #62, #110 ) ;
#142 = CARTESIAN_POINT ( 'NONE',  ( -7.000000000000000000, 0.000000000000000000, 5.000000000000000000 ) ) ;
#143 = PERSON_AND_ORGANIZATION_ROLE ( 'design_supplier' ) ;
#144 = DATE_AND_TIME ( #117, #163 ) ;
#145 = CC_DESIGN_PERSON_AND_ORGANIZATION_ASSIGNMENT ( #161, #236, ( #208 ) ) ;
#146 = ORIENTED_EDGE ( 'NONE', *, *, #196, .T. ) ;
#147 = VECTOR ( 'NONE', #214, 1000.000000000000000 ) ;
#148 = APPROVAL_DATE_TIME ( #232, #82 ) ;
#149 = LOCAL_TIME ( 13, 54, 59.00000000000000000, #11 ) ;
#150 = ORIENTED_EDGE ( 'NONE', *, *, #211, .T. ) ;
#151 = CYLINDRICAL_SURFACE ( 'NONE', #156, 4.099999999999999645 ) ;
#152 = CARTESIAN_POINT ( 'NONE',  ( 4.099999999999999645, 5.021051876504147385E-16, 160.0000000000000000 ) ) ;
#153 =( NAMED_UNIT ( * ) PLANE_ANGLE_UNIT ( ) SI_UNIT ( $, .RADIAN. ) );
#154 = DIRECTION ( 'NONE',  ( 1.000000000000000000, 0.000000000000000000, -0.000000000000000000 ) ) ;
#155 = ORIENTED_EDGE ( 'NONE', *, *, #89, .T. ) ;
#156 = AXIS2_PLACEMENT_3D ( 'NONE', #28, #107, #194 ) ;
#157 = PERSON_AND_ORGANIZATION ( #66, #131 ) ;
#158 = FACE_OUTER_BOUND ( 'NONE', #186, .T. ) ;
#159 = APPROVAL_PERSON_ORGANIZATION ( #157, #218, #51 ) ;
#160 = VERTEX_POINT ( 'NONE', #112 ) ;
#161 = PERSON_AND_ORGANIZATION ( #66, #131 ) ;
#162 = CARTESIAN_POINT ( 'NONE',  ( -4.099999999999999645, 0.000000000000000000, 160.0000000000000000 ) ) ;
#163 = LOCAL_TIME ( 13, 54, 59.00000000000000000, #21 ) ;
#164 = CARTESIAN_POINT ( 'NONE',  ( 0.000000000000000000, 0.000000000000000000, 5.000000000000000000 ) ) ;
#165 = DATE_AND_TIME ( #128, #78 ) ;
#166 = CIRCLE ( 'NONE', #201, 4.099999999999999645 ) ;
#167 = PERSON_AND_ORGANIZATION ( #66, #131 ) ;
#168 = PERSON_AND_ORGANIZATION_ROLE ( 'classification_officer' ) ;
#169 = CYLINDRICAL_SURFACE ( 'NONE', #175, 4.099999999999999645 ) ;
#170 = CIRCLE ( 'NONE', #42, 7.000000000000000000 ) ;
#171 = DIRECTION ( 'NONE',  ( -0.000000000000000000, -0.000000000000000000, -1.000000000000000000 ) ) ;
#172 = SECURITY_CLASSIFICATION ( '', '', #41 ) ;
#173 = CC_DESIGN_PERSON_AND_ORGANIZATION_ASSIGNMENT ( #40, #63, ( #223 ) ) ;
#174 = DIRECTION ( 'NONE',  ( 1.000000000000000000, 0.000000000000000000, 0.000000000000000000 ) ) ;
#175 = AXIS2_PLACEMENT_3D ( 'NONE', #61, #102, #185 ) ;
#176 = ORIENTED_EDGE ( 'NONE', *, *, #89, .F. ) ;
#177 = ADVANCED_FACE ( 'NONE', ( #33 ), #202, .T. ) ;
#178 = VERTEX_POINT ( 'NONE', #181 ) ;
#179 = DIRECTION ( 'NONE',  ( -0.000000000000000000, -0.000000000000000000, -1.000000000000000000 ) ) ;
#180 = VERTEX_POINT ( 'NONE', #200 ) ;
#181 = CARTESIAN_POINT ( 'NONE',  ( -4.099999999999999645, 0.000000000000000000, 160.0000000000000000 ) ) ;
#182 = DIRECTION ( 'NONE',  ( 0.000000000000000000, 0.000000000000000000, 1.000000000000000000 ) ) ;
#183 = ORIENTED_EDGE ( 'NONE', *, *, #134, .F. ) ;
#184 = CC_DESIGN_PERSON_AND_ORGANIZATION_ASSIGNMENT ( #124, #168, ( #172 ) ) ;
#185 = DIRECTION ( 'NONE',  ( -1.000000000000000000, 0.000000000000000000, 0.000000000000000000 ) ) ;
#186 = EDGE_LOOP ( 'NONE', ( #219, #85 ) ) ;
#187 = PERSON_AND_ORGANIZATION ( #66, #131 ) ;
#188 = AXIS2_PLACEMENT_3D ( 'NONE', #14, #171, #252 ) ;
#189 = ORIENTED_EDGE ( 'NONE', *, *, #6, .T. ) ;
#190 = PRODUCT_DEFINITION_FORMATION_WITH_SPECIFIED_SOURCE ( 'LIBOVOLNÝ', '', #208, .NOT_KNOWN. ) ;
#191 = EDGE_CURVE ( 'NONE', #206, #180, #170, .T. ) ;
#192 = APPLICATION_CONTEXT ( 'configuration controlled 3d designs of mechanical parts and assemblies' ) ;
#193 =( LENGTH_UNIT ( ) NAMED_UNIT ( * ) SI_UNIT ( .MILLI., .METRE. ) );
#194 = DIRECTION ( 'NONE',  ( -1.000000000000000000, 0.000000000000000000, 0.000000000000000000 ) ) ;
#195 = CARTESIAN_POINT ( 'NONE',  ( 0.000000000000000000, 0.000000000000000000, 0.000000000000000000 ) ) ;
#196 = EDGE_CURVE ( 'NONE', #178, #59, #57, .T. ) ;
#197 = CIRCLE ( 'NONE', #31, 4.099999999999999645 ) ;
#198 = DIRECTION ( 'NONE',  ( 1.000000000000000000, 0.000000000000000000, 0.000000000000000000 ) ) ;
#199 = LINE ( 'NONE', #97, #50 ) ;
#200 = CARTESIAN_POINT ( 'NONE',  ( -7.000000000000000000, 0.000000000000000000, 0.000000000000000000 ) ) ;
#201 = AXIS2_PLACEMENT_3D ( 'NONE', #7, #139, #229 ) ;
#202 = CYLINDRICAL_SURFACE ( 'NONE', #96, 7.000000000000000000 ) ;
#203 = DIRECTION ( 'NONE',  ( 1.000000000000000000, 0.000000000000000000, 0.000000000000000000 ) ) ;
#204 = APPROVAL ( #246, 'NEURÈENÝ' ) ;
#205 = VERTEX_POINT ( 'NONE', #215 ) ;
#206 = VERTEX_POINT ( 'NONE', #4 ) ;
#207 = DATE_AND_TIME ( #10, #46 ) ;
#208 = PRODUCT ( '9292', '9292', '', ( #2 ) ) ;
#209 = ORIENTED_EDGE ( 'NONE', *, *, #48, .F. ) ;
#210 = FACE_OUTER_BOUND ( 'NONE', #95, .T. ) ;
#211 = EDGE_CURVE ( 'NONE', #180, #206, #60, .T. ) ;
#212 = CC_DESIGN_SECURITY_CLASSIFICATION ( #172, ( #190 ) ) ;
#213 = CYLINDRICAL_SURFACE ( 'NONE', #188, 7.000000000000000000 ) ;
#214 = DIRECTION ( 'NONE',  ( -0.000000000000000000, -0.000000000000000000, -1.000000000000000000 ) ) ;
#215 = CARTESIAN_POINT ( 'NONE',  ( 4.099999999999999645, 5.021051876504147385E-16, 5.000000000000000000 ) ) ;
#216 = CARTESIAN_POINT ( 'NONE',  ( 0.000000000000000000, 0.000000000000000000, 5.000000000000000000 ) ) ;
#217 = ORIENTED_EDGE ( 'NONE', *, *, #228, .F. ) ;
#218 = APPROVAL ( #239, 'NEURÈENÝ' ) ;
#219 = ORIENTED_EDGE ( 'NONE', *, *, #228, .T. ) ;
#220 = DIRECTION ( 'NONE',  ( 0.000000000000000000, 0.000000000000000000, 1.000000000000000000 ) ) ;
#221 = VERTEX_POINT ( 'NONE', #32 ) ;
#222 = DIRECTION ( 'NONE',  ( 1.000000000000000000, 0.000000000000000000, 0.000000000000000000 ) ) ;
#223 = PRODUCT_DEFINITION ( 'NEZNÁMÝ', '', #190, #19 ) ;
#224 = ORIENTED_EDGE ( 'NONE', *, *, #243, .T. ) ;
#225 = AXIS2_PLACEMENT_3D ( 'NONE', #13, #220, #203 ) ;
#226 = CARTESIAN_POINT ( 'NONE',  ( 0.000000000000000000, 0.000000000000000000, 160.0000000000000000 ) ) ;
#227 = CC_DESIGN_APPROVAL ( #204, ( #172 ) ) ;
#228 = EDGE_CURVE ( 'NONE', #221, #160, #25, .T. ) ;
#229 = DIRECTION ( 'NONE',  ( 1.000000000000000000, 0.000000000000000000, 0.000000000000000000 ) ) ;
#230 = APPROVAL_DATE_TIME ( #141, #218 ) ;
#231 = COORDINATED_UNIVERSAL_TIME_OFFSET ( 1, 0, .AHEAD. ) ;
#232 = DATE_AND_TIME ( #75, #149 ) ;
#233 = AXIS2_PLACEMENT_3D ( 'NONE', #216, #3, #79 ) ;
#234 = CC_DESIGN_DATE_AND_TIME_ASSIGNMENT ( #144, #245, ( #223 ) ) ;
#235 = FACE_OUTER_BOUND ( 'NONE', #53, .T. ) ;
#236 = PERSON_AND_ORGANIZATION_ROLE ( 'design_owner' ) ;
#237 = DIRECTION ( 'NONE',  ( 0.000000000000000000, 0.000000000000000000, 1.000000000000000000 ) ) ;
#238 = ORIENTED_EDGE ( 'NONE', *, *, #191, .F. ) ;
#239 = APPROVAL_STATUS ( 'not_yet_approved' ) ;
#240 = DIRECTION ( 'NONE',  ( 1.000000000000000000, 0.000000000000000000, 0.000000000000000000 ) ) ;
#241 = EDGE_CURVE ( 'NONE', #248, #178, #197, .T. ) ;
#242 = EDGE_LOOP ( 'NONE', ( #65, #155, #86, #20 ) ) ;
#243 = EDGE_CURVE ( 'NONE', #160, #206, #199, .T. ) ;
#244 = CARTESIAN_POINT ( 'NONE',  ( 0.000000000000000000, 0.000000000000000000, 0.000000000000000000 ) ) ;
#245 = DATE_TIME_ROLE ( 'creation_date' ) ;
#246 = APPROVAL_STATUS ( 'not_yet_approved' ) ;
#247 = ORIENTED_EDGE ( 'NONE', *, *, #241, .T. ) ;
#248 = VERTEX_POINT ( 'NONE', #93 ) ;
#249 = CIRCLE ( 'NONE', #54, 4.099999999999999645 ) ;
#250 = CC_DESIGN_PERSON_AND_ORGANIZATION_ASSIGNMENT ( #167, #143, ( #190 ) ) ;
#251 = ORIENTED_EDGE ( 'NONE', *, *, #191, .T. ) ;
#252 = DIRECTION ( 'NONE',  ( -1.000000000000000000, 0.000000000000000000, 0.000000000000000000 ) ) ;
#253 = AXIS2_PLACEMENT_3D ( 'NONE', #73, #72, #198 ) ;
#254 = ADVANCED_FACE ( 'NONE', ( #1, #158 ), #52, .T. ) ;
#255 = ORIENTED_EDGE ( 'NONE', *, *, #9, .F. ) ;
ENDSEC;
END-ISO-10303-21;
