ISO-10303-21;
HEADER;
FILE_DESCRIPTION (( 'STEP AP203' ),
    '1' );
FILE_NAME ('8d9b.STEP',
    '2023-01-31T14:32:06',
    ( '' ),
    ( '' ),
    'SwSTEP 2.0',
    'SolidWorks 2019',
    '' );
FILE_SCHEMA (( 'CONFIG_CONTROL_DESIGN' ));
ENDSEC;

DATA;
#1 = FACE_BOUND ( 'NONE', #50, .T. ) ;
#2 = ORIENTED_EDGE ( 'NONE', *, *, #161, .F. ) ;
#3 = FACE_OUTER_BOUND ( 'NONE', #244, .T. ) ;
#4 =( LENGTH_UNIT ( ) NAMED_UNIT ( * ) SI_UNIT ( .MILLI., .METRE. ) );
#5 = AXIS2_PLACEMENT_3D ( 'NONE', #40, #61, #232 ) ;
#6 = ADVANCED_FACE ( 'NONE', ( #135 ), #189, .T. ) ;
#7 = APPROVAL_STATUS ( 'not_yet_approved' ) ;
#8 = APPROVAL_DATE_TIME ( #26, #193 ) ;
#9 = VERTEX_POINT ( 'NONE', #208 ) ;
#10 = APPLICATION_CONTEXT ( 'configuration controlled 3d designs of mechanical parts and assemblies' ) ;
#11 = DIRECTION ( 'NONE',  ( -0.000000000000000000, -0.000000000000000000, -1.000000000000000000 ) ) ;
#12 = CC_DESIGN_APPROVAL ( #193, ( #173 ) ) ;
#13 = DIRECTION ( 'NONE',  ( 0.000000000000000000, 0.000000000000000000, 1.000000000000000000 ) ) ;
#14 = CARTESIAN_POINT ( 'NONE',  ( -1.250000000000000000, 0.000000000000000000, 0.000000000000000000 ) ) ;
#15 = MANIFOLD_SOLID_BREP ( 'Pøidat vysunutím3', #229 ) ;
#16 = ORIENTED_EDGE ( 'NONE', *, *, #241, .T. ) ;
#17 = ORIENTED_EDGE ( 'NONE', *, *, #87, .T. ) ;
#18 = DIRECTION ( 'NONE',  ( 1.000000000000000000, 0.000000000000000000, 0.000000000000000000 ) ) ;
#19 = LINE ( 'NONE', #42, #36 ) ;
#20 = EDGE_CURVE ( 'NONE', #152, #57, #185, .T. ) ;
#21 = DIRECTION ( 'NONE',  ( 1.000000000000000000, 0.000000000000000000, -0.000000000000000000 ) ) ;
#22 = AXIS2_PLACEMENT_3D ( 'NONE', #100, #190, #234 ) ;
#23 = ORIENTED_EDGE ( 'NONE', *, *, #79, .T. ) ;
#24 =( NAMED_UNIT ( * ) SI_UNIT ( $, .STERADIAN. ) SOLID_ANGLE_UNIT ( ) );
#25 = DIRECTION ( 'NONE',  ( 0.000000000000000000, 0.000000000000000000, 1.000000000000000000 ) ) ;
#26 = DATE_AND_TIME ( #180, #230 ) ;
#27 = ADVANCED_FACE ( 'NONE', ( #251 ), #168, .T. ) ;
#28 = CC_DESIGN_APPROVAL ( #128, ( #245 ) ) ;
#29 = SECURITY_CLASSIFICATION_LEVEL ( 'unclassified' ) ;
#30 = ORIENTED_EDGE ( 'NONE', *, *, #20, .F. ) ;
#31 = APPROVAL_DATE_TIME ( #194, #128 ) ;
#32 = CIRCLE ( 'NONE', #255, 0.5000000000000000000 ) ;
#33 = COORDINATED_UNIVERSAL_TIME_OFFSET ( 1, 0, .AHEAD. ) ;
#34 = CYLINDRICAL_SURFACE ( 'NONE', #56, 0.5000000000000000000 ) ;
#35 = ORIENTED_EDGE ( 'NONE', *, *, #122, .F. ) ;
#36 = VECTOR ( 'NONE', #62, 1000.000000000000000 ) ;
#37 = DIRECTION ( 'NONE',  ( 0.000000000000000000, 0.000000000000000000, 1.000000000000000000 ) ) ;
#38 = DIRECTION ( 'NONE',  ( 1.000000000000000000, 0.000000000000000000, 0.000000000000000000 ) ) ;
#39 = ORIENTED_EDGE ( 'NONE', *, *, #187, .T. ) ;
#40 = CARTESIAN_POINT ( 'NONE',  ( 0.000000000000000000, 0.000000000000000000, 100.0000000000000000 ) ) ;
#41 = AXIS2_PLACEMENT_3D ( 'NONE', #136, #139, #21 ) ;
#42 = CARTESIAN_POINT ( 'NONE',  ( 0.5000000000000000000, 6.123233995736766036E-17, 100.0000000000000000 ) ) ;
#43 = APPROVAL_ROLE ( '' ) ;
#44 = VERTEX_POINT ( 'NONE', #151 ) ;
#45 =( NAMED_UNIT ( * ) PLANE_ANGLE_UNIT ( ) SI_UNIT ( $, .RADIAN. ) );
#46 = VECTOR ( 'NONE', #247, 1000.000000000000000 ) ;
#47 = CC_DESIGN_APPROVAL ( #138, ( #246 ) ) ;
#48 = UNCERTAINTY_MEASURE_WITH_UNIT (LENGTH_MEASURE( 1.000000000000000082E-05 ), #4, 'distance_accuracy_value', 'NONE');
#49 = ADVANCED_FACE ( 'NONE', ( #134 ), #224, .T. ) ;
#50 = EDGE_LOOP ( 'NONE', ( #248, #220 ) ) ;
#51 = COORDINATED_UNIVERSAL_TIME_OFFSET ( 1, 0, .AHEAD. ) ;
#52 = DIRECTION ( 'NONE',  ( 1.000000000000000000, 0.000000000000000000, -0.000000000000000000 ) ) ;
#53 = ADVANCED_FACE ( 'NONE', ( #109 ), #73, .T. ) ;
#54 = CARTESIAN_POINT ( 'NONE',  ( 0.000000000000000000, 0.000000000000000000, 100.0000000000000000 ) ) ;
#55 = CARTESIAN_POINT ( 'NONE',  ( 0.000000000000000000, 0.000000000000000000, 0.000000000000000000 ) ) ;
#56 = AXIS2_PLACEMENT_3D ( 'NONE', #90, #184, #249 ) ;
#57 = VERTEX_POINT ( 'NONE', #14 ) ;
#58 = ORIENTED_EDGE ( 'NONE', *, *, #221, .F. ) ;
#59 = PERSON_AND_ORGANIZATION_ROLE ( 'design_owner' ) ;
#60 = LOCAL_TIME ( 15, 32, 6.000000000000000000, #64 ) ;
#61 = DIRECTION ( 'NONE',  ( 0.000000000000000000, 0.000000000000000000, 1.000000000000000000 ) ) ;
#62 = DIRECTION ( 'NONE',  ( -0.000000000000000000, -0.000000000000000000, -1.000000000000000000 ) ) ;
#63 = AXIS2_PLACEMENT_3D ( 'NONE', #132, #13, #52 ) ;
#64 = COORDINATED_UNIVERSAL_TIME_OFFSET ( 1, 0, .AHEAD. ) ;
#65 = APPROVAL_ROLE ( '' ) ;
#66 = COORDINATED_UNIVERSAL_TIME_OFFSET ( 1, 0, .AHEAD. ) ;
#67 = LOCAL_TIME ( 15, 32, 6.000000000000000000, #120 ) ;
#68 = ORIENTED_EDGE ( 'NONE', *, *, #178, .T. ) ;
#69 = ORIENTED_EDGE ( 'NONE', *, *, #141, .T. ) ;
#70 = EDGE_LOOP ( 'NONE', ( #58, #145, #121, #16 ) ) ;
#71 = CARTESIAN_POINT ( 'NONE',  ( 1.250000000000000000, 1.530808498934191571E-16, 1.199999999999999956 ) ) ;
#72 = AXIS2_PLACEMENT_3D ( 'NONE', #89, #167, #133 ) ;
#73 = CYLINDRICAL_SURFACE ( 'NONE', #210, 1.250000000000000000 ) ;
#74 = DIRECTION ( 'NONE',  ( -1.000000000000000000, 0.000000000000000000, 0.000000000000000000 ) ) ;
#75 = DIRECTION ( 'NONE',  ( 0.000000000000000000, 0.000000000000000000, 1.000000000000000000 ) ) ;
#76 = PLANE ( 'NONE',  #41 ) ;
#77 = AXIS2_PLACEMENT_3D ( 'NONE', #54, #226, #74 ) ;
#78 = DIRECTION ( 'NONE',  ( 1.000000000000000000, 0.000000000000000000, 0.000000000000000000 ) ) ;
#79 = EDGE_CURVE ( 'NONE', #188, #57, #200, .T. ) ;
#80 = VECTOR ( 'NONE', #159, 1000.000000000000000 ) ;
#81 = SHAPE_DEFINITION_REPRESENTATION ( #153, #237 ) ;
#82 = APPROVAL_STATUS ( 'not_yet_approved' ) ;
#83 = ORIENTED_EDGE ( 'NONE', *, *, #141, .F. ) ;
#84 = CIRCLE ( 'NONE', #106, 0.5000000000000000000 ) ;
#85 = CALENDAR_DATE ( 2023, 31, 1 ) ;
#86 = EDGE_LOOP ( 'NONE', ( #148, #162, #39, #2 ) ) ;
#87 = EDGE_CURVE ( 'NONE', #144, #152, #92, .T. ) ;
#88 = CARTESIAN_POINT ( 'NONE',  ( 0.000000000000000000, 0.000000000000000000, 1.199999999999999956 ) ) ;
#89 = CARTESIAN_POINT ( 'NONE',  ( 0.000000000000000000, 0.000000000000000000, 1.199999999999999956 ) ) ;
#90 = CARTESIAN_POINT ( 'NONE',  ( 0.000000000000000000, 0.000000000000000000, 100.0000000000000000 ) ) ;
#91 = VERTEX_POINT ( 'NONE', #94 ) ;
#92 = CIRCLE ( 'NONE', #72, 1.250000000000000000 ) ;
#93 = AXIS2_PLACEMENT_3D ( 'NONE', #213, #191, #97 ) ;
#94 = CARTESIAN_POINT ( 'NONE',  ( 0.5000000000000000000, 6.123233995736766036E-17, 100.0000000000000000 ) ) ;
#95 = PERSON_AND_ORGANIZATION ( #206, #154 ) ;
#96 = CIRCLE ( 'NONE', #22, 0.5000000000000000000 ) ;
#97 = DIRECTION ( 'NONE',  ( 1.000000000000000000, 0.000000000000000000, -0.000000000000000000 ) ) ;
#98 = PRODUCT_RELATED_PRODUCT_CATEGORY ( 'detail', '', ( #252 ) ) ;
#99 = DIRECTION ( 'NONE',  ( 1.000000000000000000, 0.000000000000000000, 0.000000000000000000 ) ) ;
#100 = CARTESIAN_POINT ( 'NONE',  ( 0.000000000000000000, 0.000000000000000000, 100.0000000000000000 ) ) ;
#101 = PERSON_AND_ORGANIZATION ( #206, #154 ) ;
#102 = AXIS2_PLACEMENT_3D ( 'NONE', #209, #118, #18 ) ;
#103 = CC_DESIGN_DATE_AND_TIME_ASSIGNMENT ( #216, #107, ( #245 ) ) ;
#104 = PERSON_AND_ORGANIZATION ( #206, #154 ) ;
#105 = EDGE_LOOP ( 'NONE', ( #83, #116 ) ) ;
#106 = AXIS2_PLACEMENT_3D ( 'NONE', #215, #158, #172 ) ;
#107 = DATE_TIME_ROLE ( 'creation_date' ) ;
#108 = CC_DESIGN_DATE_AND_TIME_ASSIGNMENT ( #147, #183, ( #246 ) ) ;
#109 = FACE_OUTER_BOUND ( 'NONE', #250, .T. ) ;
#110 = ORIENTED_EDGE ( 'NONE', *, *, #166, .F. ) ;
#111 = CC_DESIGN_PERSON_AND_ORGANIZATION_ASSIGNMENT ( #233, #59, ( #252 ) ) ;
#112 = VECTOR ( 'NONE', #231, 1000.000000000000000 ) ;
#113 = CARTESIAN_POINT ( 'NONE',  ( 1.250000000000000000, 1.530808498934191571E-16, 1.199999999999999956 ) ) ;
#114 = DESIGN_CONTEXT ( 'detailed design', #225, 'design' ) ;
#115 = LINE ( 'NONE', #174, #80 ) ;
#116 = ORIENTED_EDGE ( 'NONE', *, *, #79, .F. ) ;
#117 = AXIS2_PLACEMENT_3D ( 'NONE', #236, #25, #99 ) ;
#118 = DIRECTION ( 'NONE',  ( 0.000000000000000000, 0.000000000000000000, 1.000000000000000000 ) ) ;
#119 = APPLICATION_PROTOCOL_DEFINITION ( 'international standard', 'config_control_design', 1994, #225 ) ;
#120 = COORDINATED_UNIVERSAL_TIME_OFFSET ( 1, 0, .AHEAD. ) ;
#121 = ORIENTED_EDGE ( 'NONE', *, *, #161, .T. ) ;
#122 = EDGE_CURVE ( 'NONE', #144, #188, #223, .T. ) ;
#123 = CIRCLE ( 'NONE', #5, 0.5000000000000000000 ) ;
#124 = PERSON_AND_ORGANIZATION ( #206, #154 ) ;
#125 = CC_DESIGN_PERSON_AND_ORGANIZATION_ASSIGNMENT ( #179, #142, ( #173 ) ) ;
#126 =( GEOMETRIC_REPRESENTATION_CONTEXT ( 3 ) GLOBAL_UNCERTAINTY_ASSIGNED_CONTEXT ( ( #48 ) ) GLOBAL_UNIT_ASSIGNED_CONTEXT ( ( #4, #45, #24 ) ) REPRESENTATION_CONTEXT ( 'NONE', 'WORKASPACE' ) );
#127 = PERSON_AND_ORGANIZATION ( #206, #154 ) ;
#128 = APPROVAL ( #137, 'NEURÈENÝ' ) ;
#129 = PERSON_AND_ORGANIZATION_ROLE ( 'creator' ) ;
#130 = LOCAL_TIME ( 15, 32, 6.000000000000000000, #51 ) ;
#131 = DIRECTION ( 'NONE',  ( -0.000000000000000000, -0.000000000000000000, -1.000000000000000000 ) ) ;
#132 = CARTESIAN_POINT ( 'NONE',  ( 0.000000000000000000, 0.000000000000000000, 100.0000000000000000 ) ) ;
#133 = DIRECTION ( 'NONE',  ( 1.000000000000000000, 0.000000000000000000, 0.000000000000000000 ) ) ;
#134 = FACE_OUTER_BOUND ( 'NONE', #86, .T. ) ;
#135 = FACE_OUTER_BOUND ( 'NONE', #198, .T. ) ;
#136 = CARTESIAN_POINT ( 'NONE',  ( 0.000000000000000000, 0.000000000000000000, 0.000000000000000000 ) ) ;
#137 = APPROVAL_STATUS ( 'not_yet_approved' ) ;
#138 = APPROVAL ( #7, 'NEURÈENÝ' ) ;
#139 = DIRECTION ( 'NONE',  ( 0.000000000000000000, 0.000000000000000000, 1.000000000000000000 ) ) ;
#140 = CARTESIAN_POINT ( 'NONE',  ( 0.000000000000000000, 0.000000000000000000, 1.199999999999999956 ) ) ;
#141 = EDGE_CURVE ( 'NONE', #57, #188, #238, .T. ) ;
#142 = PERSON_AND_ORGANIZATION_ROLE ( 'design_supplier' ) ;
#143 = ORIENTED_EDGE ( 'NONE', *, *, #166, .T. ) ;
#144 = VERTEX_POINT ( 'NONE', #113 ) ;
#145 = ORIENTED_EDGE ( 'NONE', *, *, #178, .F. ) ;
#146 = CC_DESIGN_PERSON_AND_ORGANIZATION_ASSIGNMENT ( #240, #242, ( #246 ) ) ;
#147 = DATE_AND_TIME ( #85, #60 ) ;
#148 = ORIENTED_EDGE ( 'NONE', *, *, #195, .F. ) ;
#149 = APPROVAL_PERSON_ORGANIZATION ( #124, #193, #219 ) ;
#150 = CARTESIAN_POINT ( 'NONE',  ( -1.250000000000000000, 0.000000000000000000, 1.199999999999999956 ) ) ;
#151 = CARTESIAN_POINT ( 'NONE',  ( -0.5000000000000000000, 0.000000000000000000, 100.0000000000000000 ) ) ;
#152 = VERTEX_POINT ( 'NONE', #186 ) ;
#153 = PRODUCT_DEFINITION_SHAPE ( 'NONE', 'NONE',  #245 ) ;
#154 = ORGANIZATION ( 'NEURÈENÝ', 'NEURÈENÝ', '' ) ;
#155 = DIRECTION ( 'NONE',  ( -1.000000000000000000, 0.000000000000000000, 0.000000000000000000 ) ) ;
#156 = FACE_OUTER_BOUND ( 'NONE', #105, .T. ) ;
#157 = ADVANCED_FACE ( 'NONE', ( #165 ), #34, .T. ) ;
#158 = DIRECTION ( 'NONE',  ( 0.000000000000000000, 0.000000000000000000, 1.000000000000000000 ) ) ;
#159 = DIRECTION ( 'NONE',  ( -0.000000000000000000, -0.000000000000000000, -1.000000000000000000 ) ) ;
#160 = PERSON_AND_ORGANIZATION_ROLE ( 'creator' ) ;
#161 = EDGE_CURVE ( 'NONE', #44, #9, #115, .T. ) ;
#162 = ORIENTED_EDGE ( 'NONE', *, *, #221, .T. ) ;
#163 = DATE_AND_TIME ( #217, #177 ) ;
#164 = ORIENTED_EDGE ( 'NONE', *, *, #87, .F. ) ;
#165 = FACE_OUTER_BOUND ( 'NONE', #70, .T. ) ;
#166 = EDGE_CURVE ( 'NONE', #152, #144, #222, .T. ) ;
#167 = DIRECTION ( 'NONE',  ( 0.000000000000000000, 0.000000000000000000, 1.000000000000000000 ) ) ;
#168 = CYLINDRICAL_SURFACE ( 'NONE', #204, 1.250000000000000000 ) ;
#169 = DIRECTION ( 'NONE',  ( -1.000000000000000000, 0.000000000000000000, 0.000000000000000000 ) ) ;
#170 = EDGE_LOOP ( 'NONE', ( #35, #110, #196, #69 ) ) ;
#171 = CARTESIAN_POINT ( 'NONE',  ( 0.5000000000000000000, 6.123233995736766036E-17, 1.199999999999999956 ) ) ;
#172 = DIRECTION ( 'NONE',  ( 1.000000000000000000, 0.000000000000000000, 0.000000000000000000 ) ) ;
#173 = PRODUCT_DEFINITION_FORMATION_WITH_SPECIFIED_SOURCE ( 'LIBOVOLNÝ', '', #252, .NOT_KNOWN. ) ;
#174 = CARTESIAN_POINT ( 'NONE',  ( -0.5000000000000000000, 0.000000000000000000, 100.0000000000000000 ) ) ;
#175 = CC_DESIGN_PERSON_AND_ORGANIZATION_ASSIGNMENT ( #104, #160, ( #245 ) ) ;
#176 = APPROVAL_DATE_TIME ( #163, #138 ) ;
#177 = LOCAL_TIME ( 15, 32, 6.000000000000000000, #66 ) ;
#178 = EDGE_CURVE ( 'NONE', #44, #91, #96, .T. ) ;
#179 = PERSON_AND_ORGANIZATION ( #206, #154 ) ;
#180 = CALENDAR_DATE ( 2023, 31, 1 ) ;
#181 = CC_DESIGN_SECURITY_CLASSIFICATION ( #246, ( #173 ) ) ;
#182 = ORIENTED_EDGE ( 'NONE', *, *, #195, .T. ) ;
#183 = DATE_TIME_ROLE ( 'classification_date' ) ;
#184 = DIRECTION ( 'NONE',  ( -0.000000000000000000, -0.000000000000000000, -1.000000000000000000 ) ) ;
#185 = LINE ( 'NONE', #150, #46 ) ;
#186 = CARTESIAN_POINT ( 'NONE',  ( -1.250000000000000000, 0.000000000000000000, 1.199999999999999956 ) ) ;
#187 = EDGE_CURVE ( 'NONE', #202, #9, #84, .T. ) ;
#188 = VERTEX_POINT ( 'NONE', #235 ) ;
#189 = PLANE ( 'NONE',  #63 ) ;
#190 = DIRECTION ( 'NONE',  ( 0.000000000000000000, 0.000000000000000000, 1.000000000000000000 ) ) ;
#191 = DIRECTION ( 'NONE',  ( 0.000000000000000000, 0.000000000000000000, 1.000000000000000000 ) ) ;
#192 = PLANE ( 'NONE',  #93 ) ;
#193 = APPROVAL ( #82, 'NEURÈENÝ' ) ;
#194 = DATE_AND_TIME ( #199, #67 ) ;
#195 = EDGE_CURVE ( 'NONE', #91, #44, #123, .T. ) ;
#196 = ORIENTED_EDGE ( 'NONE', *, *, #20, .T. ) ;
#197 = CALENDAR_DATE ( 2023, 31, 1 ) ;
#198 = EDGE_LOOP ( 'NONE', ( #68, #182 ) ) ;
#199 = CALENDAR_DATE ( 2023, 31, 1 ) ;
#200 = CIRCLE ( 'NONE', #218, 1.250000000000000000 ) ;
#201 = DIRECTION ( 'NONE',  ( 1.000000000000000000, 0.000000000000000000, 0.000000000000000000 ) ) ;
#202 = VERTEX_POINT ( 'NONE', #171 ) ;
#203 = CARTESIAN_POINT ( 'NONE',  ( 0.000000000000000000, 0.000000000000000000, 0.000000000000000000 ) ) ;
#204 = AXIS2_PLACEMENT_3D ( 'NONE', #88, #11, #169 ) ;
#205 = APPROVAL_PERSON_ORGANIZATION ( #127, #138, #65 ) ;
#206 = PERSON ( 'NEURÈENÝ', 'NEURÈENÝ', 'NEURÈENÝ', ('NEURÈENÝ'), ('NEURÈENÝ'), ('NEURÈENÝ') ) ;
#207 = DIRECTION ( 'NONE',  ( 0.000000000000000000, 0.000000000000000000, 1.000000000000000000 ) ) ;
#208 = CARTESIAN_POINT ( 'NONE',  ( -0.5000000000000000000, 0.000000000000000000, 1.199999999999999956 ) ) ;
#209 = CARTESIAN_POINT ( 'NONE',  ( 0.000000000000000000, 0.000000000000000000, 0.000000000000000000 ) ) ;
#210 = AXIS2_PLACEMENT_3D ( 'NONE', #228, #131, #155 ) ;
#211 = ADVANCED_FACE ( 'NONE', ( #156 ), #76, .F. ) ;
#212 = APPLICATION_PROTOCOL_DEFINITION ( 'international standard', 'config_control_design', 1994, #10 ) ;
#213 = CARTESIAN_POINT ( 'NONE',  ( 0.000000000000000000, 0.000000000000000000, 1.199999999999999956 ) ) ;
#214 = CC_DESIGN_PERSON_AND_ORGANIZATION_ASSIGNMENT ( #101, #129, ( #173 ) ) ;
#215 = CARTESIAN_POINT ( 'NONE',  ( 0.000000000000000000, 0.000000000000000000, 1.199999999999999956 ) ) ;
#216 = DATE_AND_TIME ( #197, #130 ) ;
#217 = CALENDAR_DATE ( 2023, 31, 1 ) ;
#218 = AXIS2_PLACEMENT_3D ( 'NONE', #55, #207, #38 ) ;
#219 = APPROVAL_ROLE ( '' ) ;
#220 = ORIENTED_EDGE ( 'NONE', *, *, #187, .F. ) ;
#221 = EDGE_CURVE ( 'NONE', #91, #202, #19, .T. ) ;
#222 = CIRCLE ( 'NONE', #117, 1.250000000000000000 ) ;
#223 = LINE ( 'NONE', #71, #112 ) ;
#224 = CYLINDRICAL_SURFACE ( 'NONE', #77, 0.5000000000000000000 ) ;
#225 = APPLICATION_CONTEXT ( 'configuration controlled 3d designs of mechanical parts and assemblies' ) ;
#226 = DIRECTION ( 'NONE',  ( -0.000000000000000000, -0.000000000000000000, -1.000000000000000000 ) ) ;
#227 = ADVANCED_FACE ( 'NONE', ( #1, #3 ), #192, .T. ) ;
#228 = CARTESIAN_POINT ( 'NONE',  ( 0.000000000000000000, 0.000000000000000000, 1.199999999999999956 ) ) ;
#229 = CLOSED_SHELL ( 'NONE', ( #49, #53, #27, #227, #211, #157, #6 ) ) ;
#230 = LOCAL_TIME ( 15, 32, 6.000000000000000000, #33 ) ;
#231 = DIRECTION ( 'NONE',  ( -0.000000000000000000, -0.000000000000000000, -1.000000000000000000 ) ) ;
#232 = DIRECTION ( 'NONE',  ( 1.000000000000000000, 0.000000000000000000, 0.000000000000000000 ) ) ;
#233 = PERSON_AND_ORGANIZATION ( #206, #154 ) ;
#234 = DIRECTION ( 'NONE',  ( 1.000000000000000000, 0.000000000000000000, 0.000000000000000000 ) ) ;
#235 = CARTESIAN_POINT ( 'NONE',  ( 1.250000000000000000, 1.530808498934191571E-16, 0.000000000000000000 ) ) ;
#236 = CARTESIAN_POINT ( 'NONE',  ( 0.000000000000000000, 0.000000000000000000, 1.199999999999999956 ) ) ;
#237 = ADVANCED_BREP_SHAPE_REPRESENTATION ( '8d9b', ( #15, #102 ), #126 ) ;
#238 = CIRCLE ( 'NONE', #254, 1.250000000000000000 ) ;
#239 = APPROVAL_PERSON_ORGANIZATION ( #95, #128, #43 ) ;
#240 = PERSON_AND_ORGANIZATION ( #206, #154 ) ;
#241 = EDGE_CURVE ( 'NONE', #9, #202, #32, .T. ) ;
#242 = PERSON_AND_ORGANIZATION_ROLE ( 'classification_officer' ) ;
#243 = ORIENTED_EDGE ( 'NONE', *, *, #122, .T. ) ;
#244 = EDGE_LOOP ( 'NONE', ( #143, #17 ) ) ;
#245 = PRODUCT_DEFINITION ( 'NEZNÁMÝ', '', #173, #114 ) ;
#246 = SECURITY_CLASSIFICATION ( '', '', #29 ) ;
#247 = DIRECTION ( 'NONE',  ( -0.000000000000000000, -0.000000000000000000, -1.000000000000000000 ) ) ;
#248 = ORIENTED_EDGE ( 'NONE', *, *, #241, .F. ) ;
#249 = DIRECTION ( 'NONE',  ( -1.000000000000000000, 0.000000000000000000, 0.000000000000000000 ) ) ;
#250 = EDGE_LOOP ( 'NONE', ( #164, #243, #23, #30 ) ) ;
#251 = FACE_OUTER_BOUND ( 'NONE', #170, .T. ) ;
#252 = PRODUCT ( '8d9b', '8d9b', '', ( #253 ) ) ;
#253 = MECHANICAL_CONTEXT ( 'NONE', #10, 'mechanical' ) ;
#254 = AXIS2_PLACEMENT_3D ( 'NONE', #203, #37, #201 ) ;
#255 = AXIS2_PLACEMENT_3D ( 'NONE', #140, #75, #78 ) ;
ENDSEC;
END-ISO-10303-21;
