ISO-10303-21;
HEADER;
FILE_DESCRIPTION (( 'STEP AP203' ),
    '1' );
FILE_NAME ('93e2.STEP',
    '2023-02-13T10:20:16',
    ( '' ),
    ( '' ),
    'SwSTEP 2.0',
    'SolidWorks 2019',
    '' );
FILE_SCHEMA (( 'CONFIG_CONTROL_DESIGN' ));
ENDSEC;

DATA;
#1 = VERTEX_POINT ( 'NONE', #171 ) ;
#2 = ORIENTED_EDGE ( 'NONE', *, *, #210, .T. ) ;
#3 = AXIS2_PLACEMENT_3D ( 'NONE', #212, #89, #146 ) ;
#4 = ORIENTED_EDGE ( 'NONE', *, *, #249, .T. ) ;
#5 = VERTEX_POINT ( 'NONE', #50 ) ;
#6 = DIRECTION ( 'NONE',  ( 0.000000000000000000, 0.000000000000000000, 1.000000000000000000 ) ) ;
#7 = EDGE_CURVE ( 'NONE', #203, #204, #38, .T. ) ;
#8 = CARTESIAN_POINT ( 'NONE',  ( -6.000000000000000888, 0.000000000000000000, 200.0000000000000000 ) ) ;
#9 = AXIS2_PLACEMENT_3D ( 'NONE', #187, #84, #244 ) ;
#10 = DIRECTION ( 'NONE',  ( 1.000000000000000000, 0.000000000000000000, 0.000000000000000000 ) ) ;
#11 = FACE_OUTER_BOUND ( 'NONE', #115, .T. ) ;
#12 = CARTESIAN_POINT ( 'NONE',  ( 0.000000000000000000, 0.000000000000000000, 7.000000000000000000 ) ) ;
#13 = FACE_OUTER_BOUND ( 'NONE', #240, .T. ) ;
#14 = DIRECTION ( 'NONE',  ( 0.000000000000000000, 0.000000000000000000, 1.000000000000000000 ) ) ;
#15 = DIRECTION ( 'NONE',  ( -1.000000000000000000, 0.000000000000000000, 0.000000000000000000 ) ) ;
#16 = CARTESIAN_POINT ( 'NONE',  ( 0.000000000000000000, 0.000000000000000000, 7.000000000000000000 ) ) ;
#17 = APPROVAL_STATUS ( 'not_yet_approved' ) ;
#18 = CC_DESIGN_PERSON_AND_ORGANIZATION_ASSIGNMENT ( #220, #202, ( #117 ) ) ;
#19 = ORIENTED_EDGE ( 'NONE', *, *, #90, .T. ) ;
#20 = COORDINATED_UNIVERSAL_TIME_OFFSET ( 1, 0, .AHEAD. ) ;
#21 = VERTEX_POINT ( 'NONE', #8 ) ;
#22 = EDGE_CURVE ( 'NONE', #21, #5, #150, .T. ) ;
#23 = DATE_AND_TIME ( #224, #142 ) ;
#24 = ORIENTED_EDGE ( 'NONE', *, *, #178, .T. ) ;
#25 = FACE_OUTER_BOUND ( 'NONE', #185, .T. ) ;
#26 = ADVANCED_FACE ( 'NONE', ( #11 ), #230, .T. ) ;
#27 = PLANE ( 'NONE',  #155 ) ;
#28 = CYLINDRICAL_SURFACE ( 'NONE', #217, 10.00000000000000000 ) ;
#29 = APPROVAL_PERSON_ORGANIZATION ( #254, #156, #118 ) ;
#30 = ADVANCED_FACE ( 'NONE', ( #125 ), #28, .T. ) ;
#31 = CARTESIAN_POINT ( 'NONE',  ( 6.000000000000000888, 7.347880794884120722E-16, 200.0000000000000000 ) ) ;
#32 = DIRECTION ( 'NONE',  ( -0.000000000000000000, -0.000000000000000000, -1.000000000000000000 ) ) ;
#33 = PERSON_AND_ORGANIZATION_ROLE ( 'design_owner' ) ;
#34 = ORGANIZATION ( 'NEURÈENÝ', 'NEURÈENÝ', '' ) ;
#35 = CARTESIAN_POINT ( 'NONE',  ( 10.00000000000000000, 1.224646799147353256E-15, 0.000000000000000000 ) ) ;
#36 = APPROVAL ( #235, 'NEURÈENÝ' ) ;
#37 = CARTESIAN_POINT ( 'NONE',  ( 10.00000000000000000, 1.224646799147353256E-15, 7.000000000000000000 ) ) ;
#38 = CIRCLE ( 'NONE', #145, 10.00000000000000000 ) ;
#39 = LINE ( 'NONE', #37, #234 ) ;
#40 = EDGE_CURVE ( 'NONE', #169, #1, #243, .T. ) ;
#41 = APPLICATION_PROTOCOL_DEFINITION ( 'international standard', 'config_control_design', 1994, #53 ) ;
#42 = ORIENTED_EDGE ( 'NONE', *, *, #7, .T. ) ;
#43 = AXIS2_PLACEMENT_3D ( 'NONE', #12, #6, #247 ) ;
#44 = ORIENTED_EDGE ( 'NONE', *, *, #59, .T. ) ;
#45 = COORDINATED_UNIVERSAL_TIME_OFFSET ( 1, 0, .AHEAD. ) ;
#46 = ORIENTED_EDGE ( 'NONE', *, *, #129, .F. ) ;
#47 = CC_DESIGN_DATE_AND_TIME_ASSIGNMENT ( #23, #162, ( #184 ) ) ;
#48 = CARTESIAN_POINT ( 'NONE',  ( -10.00000000000000000, 0.000000000000000000, 7.000000000000000000 ) ) ;
#49 = CARTESIAN_POINT ( 'NONE',  ( 0.000000000000000000, 0.000000000000000000, 7.000000000000000000 ) ) ;
#50 = CARTESIAN_POINT ( 'NONE',  ( -6.000000000000000888, 0.000000000000000000, 7.000000000000000000 ) ) ;
#51 = DIRECTION ( 'NONE',  ( 1.000000000000000000, 0.000000000000000000, 0.000000000000000000 ) ) ;
#52 = CIRCLE ( 'NONE', #151, 10.00000000000000000 ) ;
#53 = APPLICATION_CONTEXT ( 'configuration controlled 3d designs of mechanical parts and assemblies' ) ;
#54 = DIRECTION ( 'NONE',  ( 0.000000000000000000, 0.000000000000000000, 1.000000000000000000 ) ) ;
#55 = CALENDAR_DATE ( 2023, 13, 2 ) ;
#56 = CLOSED_SHELL ( 'NONE', ( #26, #30, #223, #167, #57, #173, #68 ) ) ;
#57 = ADVANCED_FACE ( 'NONE', ( #87 ), #85, .F. ) ;
#58 = APPLICATION_PROTOCOL_DEFINITION ( 'international standard', 'config_control_design', 1994, #128 ) ;
#59 = EDGE_CURVE ( 'NONE', #144, #21, #134, .T. ) ;
#60 = DATE_AND_TIME ( #197, #179 ) ;
#61 = AXIS2_PLACEMENT_3D ( 'NONE', #198, #91, #159 ) ;
#62 = PERSON_AND_ORGANIZATION ( #88, #34 ) ;
#63 = ORIENTED_EDGE ( 'NONE', *, *, #40, .F. ) ;
#64 = EDGE_CURVE ( 'NONE', #144, #239, #175, .T. ) ;
#65 = ORIENTED_EDGE ( 'NONE', *, *, #129, .T. ) ;
#66 = APPROVAL_PERSON_ORGANIZATION ( #177, #36, #251 ) ;
#67 = MANIFOLD_SOLID_BREP ( 'Pøidat vysunutím3', #56 ) ;
#68 = ADVANCED_FACE ( 'NONE', ( #107 ), #27, .T. ) ;
#69 = CARTESIAN_POINT ( 'NONE',  ( 0.000000000000000000, 0.000000000000000000, 7.000000000000000000 ) ) ;
#70 = VECTOR ( 'NONE', #101, 1000.000000000000000 ) ;
#71 = CARTESIAN_POINT ( 'NONE',  ( 0.000000000000000000, 0.000000000000000000, 0.000000000000000000 ) ) ;
#72 = DIRECTION ( 'NONE',  ( -0.000000000000000000, -0.000000000000000000, -1.000000000000000000 ) ) ;
#73 = CARTESIAN_POINT ( 'NONE',  ( -10.00000000000000000, 0.000000000000000000, 7.000000000000000000 ) ) ;
#74 = DIRECTION ( 'NONE',  ( 0.000000000000000000, 0.000000000000000000, 1.000000000000000000 ) ) ;
#75 = COORDINATED_UNIVERSAL_TIME_OFFSET ( 1, 0, .AHEAD. ) ;
#76 = DIRECTION ( 'NONE',  ( 0.000000000000000000, 0.000000000000000000, 1.000000000000000000 ) ) ;
#77 = AXIS2_PLACEMENT_3D ( 'NONE', #69, #74, #207 ) ;
#78 =( NAMED_UNIT ( * ) SI_UNIT ( $, .STERADIAN. ) SOLID_ANGLE_UNIT ( ) );
#79 =( NAMED_UNIT ( * ) PLANE_ANGLE_UNIT ( ) SI_UNIT ( $, .RADIAN. ) );
#80 = PERSON_AND_ORGANIZATION_ROLE ( 'creator' ) ;
#81 = ORIENTED_EDGE ( 'NONE', *, *, #40, .T. ) ;
#82 = ORIENTED_EDGE ( 'NONE', *, *, #210, .F. ) ;
#83 = ORIENTED_EDGE ( 'NONE', *, *, #22, .T. ) ;
#84 = DIRECTION ( 'NONE',  ( -0.000000000000000000, -0.000000000000000000, -1.000000000000000000 ) ) ;
#85 = PLANE ( 'NONE',  #233 ) ;
#86 = CARTESIAN_POINT ( 'NONE',  ( 0.000000000000000000, 0.000000000000000000, 200.0000000000000000 ) ) ;
#87 = FACE_OUTER_BOUND ( 'NONE', #148, .T. ) ;
#88 = PERSON ( 'NEURÈENÝ', 'NEURÈENÝ', 'NEURÈENÝ', ('NEURÈENÝ'), ('NEURÈENÝ'), ('NEURÈENÝ') ) ;
#89 = DIRECTION ( 'NONE',  ( 0.000000000000000000, 0.000000000000000000, 1.000000000000000000 ) ) ;
#90 = EDGE_CURVE ( 'NONE', #5, #239, #205, .T. ) ;
#91 = DIRECTION ( 'NONE',  ( 0.000000000000000000, 0.000000000000000000, 1.000000000000000000 ) ) ;
#92 = CARTESIAN_POINT ( 'NONE',  ( 0.000000000000000000, 0.000000000000000000, 7.000000000000000000 ) ) ;
#93 = AXIS2_PLACEMENT_3D ( 'NONE', #86, #72, #209 ) ;
#94 = VECTOR ( 'NONE', #32, 1000.000000000000000 ) ;
#95 =( GEOMETRIC_REPRESENTATION_CONTEXT ( 3 ) GLOBAL_UNCERTAINTY_ASSIGNED_CONTEXT ( ( #170 ) ) GLOBAL_UNIT_ASSIGNED_CONTEXT ( ( #216, #79, #78 ) ) REPRESENTATION_CONTEXT ( 'NONE', 'WORKASPACE' ) );
#96 = APPROVAL_DATE_TIME ( #181, #112 ) ;
#97 = APPROVAL_DATE_TIME ( #138, #156 ) ;
#98 = CC_DESIGN_SECURITY_CLASSIFICATION ( #184, ( #117 ) ) ;
#99 = CYLINDRICAL_SURFACE ( 'NONE', #9, 6.000000000000000888 ) ;
#100 = ADVANCED_BREP_SHAPE_REPRESENTATION ( '93e2', ( #67, #61 ), #95 ) ;
#101 = DIRECTION ( 'NONE',  ( -0.000000000000000000, -0.000000000000000000, -1.000000000000000000 ) ) ;
#102 = LOCAL_TIME ( 11, 20, 16.00000000000000000, #176 ) ;
#103 = DIRECTION ( 'NONE',  ( 1.000000000000000000, 0.000000000000000000, 0.000000000000000000 ) ) ;
#104 = PRODUCT_DEFINITION_SHAPE ( 'NONE', 'NONE',  #206 ) ;
#105 = CARTESIAN_POINT ( 'NONE',  ( 6.000000000000000888, 7.347880794884120722E-16, 200.0000000000000000 ) ) ;
#106 = EDGE_CURVE ( 'NONE', #239, #5, #188, .T. ) ;
#107 = FACE_OUTER_BOUND ( 'NONE', #221, .T. ) ;
#108 = VECTOR ( 'NONE', #149, 1000.000000000000000 ) ;
#109 = DATE_AND_TIME ( #219, #136 ) ;
#110 = DATE_TIME_ROLE ( 'creation_date' ) ;
#111 = DIRECTION ( 'NONE',  ( -0.000000000000000000, -0.000000000000000000, -1.000000000000000000 ) ) ;
#112 = APPROVAL ( #17, 'NEURÈENÝ' ) ;
#113 = CARTESIAN_POINT ( 'NONE',  ( 6.000000000000000888, 7.347880794884120722E-16, 7.000000000000000000 ) ) ;
#114 = PERSON_AND_ORGANIZATION ( #88, #34 ) ;
#115 = EDGE_LOOP ( 'NONE', ( #139, #163, #211, #200 ) ) ;
#116 = EDGE_LOOP ( 'NONE', ( #168, #119 ) ) ;
#117 = PRODUCT_DEFINITION_FORMATION_WITH_SPECIFIED_SOURCE ( 'LIBOVOLNÝ', '', #229, .NOT_KNOWN. ) ;
#118 = APPROVAL_ROLE ( '' ) ;
#119 = ORIENTED_EDGE ( 'NONE', *, *, #106, .F. ) ;
#120 = ORIENTED_EDGE ( 'NONE', *, *, #186, .T. ) ;
#121 = CALENDAR_DATE ( 2023, 13, 2 ) ;
#122 = LOCAL_TIME ( 11, 20, 16.00000000000000000, #20 ) ;
#123 = DIRECTION ( 'NONE',  ( 0.000000000000000000, 0.000000000000000000, 1.000000000000000000 ) ) ;
#124 = CARTESIAN_POINT ( 'NONE',  ( 0.000000000000000000, 0.000000000000000000, 0.000000000000000000 ) ) ;
#125 = FACE_OUTER_BOUND ( 'NONE', #182, .T. ) ;
#126 = CC_DESIGN_APPROVAL ( #112, ( #117 ) ) ;
#127 = LINE ( 'NONE', #73, #94 ) ;
#128 = APPLICATION_CONTEXT ( 'configuration controlled 3d designs of mechanical parts and assemblies' ) ;
#129 = EDGE_CURVE ( 'NONE', #169, #203, #127, .T. ) ;
#130 = PLANE ( 'NONE',  #3 ) ;
#131 = CARTESIAN_POINT ( 'NONE',  ( 0.000000000000000000, 0.000000000000000000, 200.0000000000000000 ) ) ;
#132 = CIRCLE ( 'NONE', #226, 10.00000000000000000 ) ;
#133 = COORDINATED_UNIVERSAL_TIME_OFFSET ( 1, 0, .AHEAD. ) ;
#134 = CIRCLE ( 'NONE', #183, 6.000000000000000888 ) ;
#135 = PERSON_AND_ORGANIZATION ( #88, #34 ) ;
#136 = LOCAL_TIME ( 11, 20, 16.00000000000000000, #133 ) ;
#137 = CC_DESIGN_PERSON_AND_ORGANIZATION_ASSIGNMENT ( #199, #80, ( #117 ) ) ;
#138 = DATE_AND_TIME ( #121, #122 ) ;
#139 = ORIENTED_EDGE ( 'NONE', *, *, #59, .F. ) ;
#140 = SECURITY_CLASSIFICATION_LEVEL ( 'unclassified' ) ;
#141 = ORIENTED_EDGE ( 'NONE', *, *, #249, .F. ) ;
#142 = LOCAL_TIME ( 11, 20, 16.00000000000000000, #45 ) ;
#143 = EDGE_LOOP ( 'NONE', ( #81, #4 ) ) ;
#144 = VERTEX_POINT ( 'NONE', #105 ) ;
#145 = AXIS2_PLACEMENT_3D ( 'NONE', #248, #208, #10 ) ;
#146 = DIRECTION ( 'NONE',  ( 1.000000000000000000, 0.000000000000000000, -0.000000000000000000 ) ) ;
#147 = CIRCLE ( 'NONE', #237, 6.000000000000000888 ) ;
#148 = EDGE_LOOP ( 'NONE', ( #242, #255 ) ) ;
#149 = DIRECTION ( 'NONE',  ( -0.000000000000000000, -0.000000000000000000, -1.000000000000000000 ) ) ;
#150 = LINE ( 'NONE', #172, #70 ) ;
#151 = AXIS2_PLACEMENT_3D ( 'NONE', #16, #76, #196 ) ;
#152 = FACE_BOUND ( 'NONE', #116, .T. ) ;
#153 = PERSON_AND_ORGANIZATION_ROLE ( 'creator' ) ;
#154 = DIRECTION ( 'NONE',  ( -0.000000000000000000, -0.000000000000000000, -1.000000000000000000 ) ) ;
#155 = AXIS2_PLACEMENT_3D ( 'NONE', #193, #191, #228 ) ;
#156 = APPROVAL ( #164, 'NEURÈENÝ' ) ;
#157 = AXIS2_PLACEMENT_3D ( 'NONE', #92, #111, #15 ) ;
#158 = CYLINDRICAL_SURFACE ( 'NONE', #157, 10.00000000000000000 ) ;
#159 = DIRECTION ( 'NONE',  ( 1.000000000000000000, 0.000000000000000000, 0.000000000000000000 ) ) ;
#160 = MECHANICAL_CONTEXT ( 'NONE', #128, 'mechanical' ) ;
#161 = CC_DESIGN_PERSON_AND_ORGANIZATION_ASSIGNMENT ( #135, #153, ( #206 ) ) ;
#162 = DATE_TIME_ROLE ( 'classification_date' ) ;
#163 = ORIENTED_EDGE ( 'NONE', *, *, #64, .T. ) ;
#164 = APPROVAL_STATUS ( 'not_yet_approved' ) ;
#165 = ORIENTED_EDGE ( 'NONE', *, *, #64, .F. ) ;
#166 = SHAPE_DEFINITION_REPRESENTATION ( #104, #100 ) ;
#167 = ADVANCED_FACE ( 'NONE', ( #152, #231 ), #130, .T. ) ;
#168 = ORIENTED_EDGE ( 'NONE', *, *, #90, .F. ) ;
#169 = VERTEX_POINT ( 'NONE', #48 ) ;
#170 = UNCERTAINTY_MEASURE_WITH_UNIT (LENGTH_MEASURE( 1.000000000000000082E-05 ), #216, 'distance_accuracy_value', 'NONE');
#171 = CARTESIAN_POINT ( 'NONE',  ( 10.00000000000000000, 1.224646799147353256E-15, 7.000000000000000000 ) ) ;
#172 = CARTESIAN_POINT ( 'NONE',  ( -6.000000000000000888, 0.000000000000000000, 200.0000000000000000 ) ) ;
#173 = ADVANCED_FACE ( 'NONE', ( #25 ), #99, .T. ) ;
#174 = DIRECTION ( 'NONE',  ( 0.000000000000000000, 0.000000000000000000, 1.000000000000000000 ) ) ;
#175 = LINE ( 'NONE', #31, #108 ) ;
#176 = COORDINATED_UNIVERSAL_TIME_OFFSET ( 1, 0, .AHEAD. ) ;
#177 = PERSON_AND_ORGANIZATION ( #88, #34 ) ;
#178 = EDGE_CURVE ( 'NONE', #204, #203, #132, .T. ) ;
#179 = LOCAL_TIME ( 11, 20, 16.00000000000000000, #75 ) ;
#180 = DESIGN_CONTEXT ( 'detailed design', #53, 'design' ) ;
#181 = DATE_AND_TIME ( #55, #102 ) ;
#182 = EDGE_LOOP ( 'NONE', ( #141, #120, #24, #46 ) ) ;
#183 = AXIS2_PLACEMENT_3D ( 'NONE', #225, #54, #51 ) ;
#184 = SECURITY_CLASSIFICATION ( '', '', #140 ) ;
#185 = EDGE_LOOP ( 'NONE', ( #165, #82, #83, #19 ) ) ;
#186 = EDGE_CURVE ( 'NONE', #1, #204, #39, .T. ) ;
#187 = CARTESIAN_POINT ( 'NONE',  ( 0.000000000000000000, 0.000000000000000000, 200.0000000000000000 ) ) ;
#188 = CIRCLE ( 'NONE', #77, 6.000000000000000888 ) ;
#189 = CARTESIAN_POINT ( 'NONE',  ( 0.000000000000000000, 0.000000000000000000, 7.000000000000000000 ) ) ;
#190 = APPROVAL_PERSON_ORGANIZATION ( #114, #112, #214 ) ;
#191 = DIRECTION ( 'NONE',  ( 0.000000000000000000, 0.000000000000000000, 1.000000000000000000 ) ) ;
#192 = DIRECTION ( 'NONE',  ( 1.000000000000000000, 0.000000000000000000, -0.000000000000000000 ) ) ;
#193 = CARTESIAN_POINT ( 'NONE',  ( 0.000000000000000000, 0.000000000000000000, 200.0000000000000000 ) ) ;
#194 = CARTESIAN_POINT ( 'NONE',  ( -10.00000000000000000, 0.000000000000000000, 0.000000000000000000 ) ) ;
#195 = CC_DESIGN_PERSON_AND_ORGANIZATION_ASSIGNMENT ( #236, #33, ( #229 ) ) ;
#196 = DIRECTION ( 'NONE',  ( 1.000000000000000000, 0.000000000000000000, 0.000000000000000000 ) ) ;
#197 = CALENDAR_DATE ( 2023, 13, 2 ) ;
#198 = CARTESIAN_POINT ( 'NONE',  ( 0.000000000000000000, 0.000000000000000000, 0.000000000000000000 ) ) ;
#199 = PERSON_AND_ORGANIZATION ( #88, #34 ) ;
#200 = ORIENTED_EDGE ( 'NONE', *, *, #22, .F. ) ;
#201 = AXIS2_PLACEMENT_3D ( 'NONE', #49, #123, #103 ) ;
#202 = PERSON_AND_ORGANIZATION_ROLE ( 'design_supplier' ) ;
#203 = VERTEX_POINT ( 'NONE', #194 ) ;
#204 = VERTEX_POINT ( 'NONE', #35 ) ;
#205 = CIRCLE ( 'NONE', #43, 6.000000000000000888 ) ;
#206 = PRODUCT_DEFINITION ( 'NEZNÁMÝ', '', #117, #180 ) ;
#207 = DIRECTION ( 'NONE',  ( 1.000000000000000000, 0.000000000000000000, 0.000000000000000000 ) ) ;
#208 = DIRECTION ( 'NONE',  ( 0.000000000000000000, 0.000000000000000000, 1.000000000000000000 ) ) ;
#209 = DIRECTION ( 'NONE',  ( -1.000000000000000000, 0.000000000000000000, 0.000000000000000000 ) ) ;
#210 = EDGE_CURVE ( 'NONE', #21, #144, #147, .T. ) ;
#211 = ORIENTED_EDGE ( 'NONE', *, *, #106, .T. ) ;
#212 = CARTESIAN_POINT ( 'NONE',  ( 0.000000000000000000, 0.000000000000000000, 7.000000000000000000 ) ) ;
#213 = CC_DESIGN_APPROVAL ( #36, ( #206 ) ) ;
#214 = APPROVAL_ROLE ( '' ) ;
#215 = DIRECTION ( 'NONE',  ( 1.000000000000000000, 0.000000000000000000, 0.000000000000000000 ) ) ;
#216 =( LENGTH_UNIT ( ) NAMED_UNIT ( * ) SI_UNIT ( .MILLI., .METRE. ) );
#217 = AXIS2_PLACEMENT_3D ( 'NONE', #189, #246, #227 ) ;
#218 = CC_DESIGN_APPROVAL ( #156, ( #184 ) ) ;
#219 = CALENDAR_DATE ( 2023, 13, 2 ) ;
#220 = PERSON_AND_ORGANIZATION ( #88, #34 ) ;
#221 = EDGE_LOOP ( 'NONE', ( #2, #44 ) ) ;
#222 = ORIENTED_EDGE ( 'NONE', *, *, #186, .F. ) ;
#223 = ADVANCED_FACE ( 'NONE', ( #13 ), #158, .T. ) ;
#224 = CALENDAR_DATE ( 2023, 13, 2 ) ;
#225 = CARTESIAN_POINT ( 'NONE',  ( 0.000000000000000000, 0.000000000000000000, 200.0000000000000000 ) ) ;
#226 = AXIS2_PLACEMENT_3D ( 'NONE', #71, #252, #253 ) ;
#227 = DIRECTION ( 'NONE',  ( -1.000000000000000000, 0.000000000000000000, 0.000000000000000000 ) ) ;
#228 = DIRECTION ( 'NONE',  ( 1.000000000000000000, 0.000000000000000000, -0.000000000000000000 ) ) ;
#229 = PRODUCT ( '93e2', '93e2', '', ( #160 ) ) ;
#230 = CYLINDRICAL_SURFACE ( 'NONE', #93, 6.000000000000000888 ) ;
#231 = FACE_OUTER_BOUND ( 'NONE', #143, .T. ) ;
#232 = CC_DESIGN_DATE_AND_TIME_ASSIGNMENT ( #109, #110, ( #206 ) ) ;
#233 = AXIS2_PLACEMENT_3D ( 'NONE', #124, #174, #192 ) ;
#234 = VECTOR ( 'NONE', #154, 1000.000000000000000 ) ;
#235 = APPROVAL_STATUS ( 'not_yet_approved' ) ;
#236 = PERSON_AND_ORGANIZATION ( #88, #34 ) ;
#237 = AXIS2_PLACEMENT_3D ( 'NONE', #131, #14, #215 ) ;
#238 = PERSON_AND_ORGANIZATION_ROLE ( 'classification_officer' ) ;
#239 = VERTEX_POINT ( 'NONE', #113 ) ;
#240 = EDGE_LOOP ( 'NONE', ( #222, #63, #65, #42 ) ) ;
#241 = CC_DESIGN_PERSON_AND_ORGANIZATION_ASSIGNMENT ( #62, #238, ( #184 ) ) ;
#242 = ORIENTED_EDGE ( 'NONE', *, *, #7, .F. ) ;
#243 = CIRCLE ( 'NONE', #201, 10.00000000000000000 ) ;
#244 = DIRECTION ( 'NONE',  ( -1.000000000000000000, 0.000000000000000000, 0.000000000000000000 ) ) ;
#245 = PRODUCT_RELATED_PRODUCT_CATEGORY ( 'detail', '', ( #229 ) ) ;
#246 = DIRECTION ( 'NONE',  ( -0.000000000000000000, -0.000000000000000000, -1.000000000000000000 ) ) ;
#247 = DIRECTION ( 'NONE',  ( 1.000000000000000000, 0.000000000000000000, 0.000000000000000000 ) ) ;
#248 = CARTESIAN_POINT ( 'NONE',  ( 0.000000000000000000, 0.000000000000000000, 0.000000000000000000 ) ) ;
#249 = EDGE_CURVE ( 'NONE', #1, #169, #52, .T. ) ;
#250 = APPROVAL_DATE_TIME ( #60, #36 ) ;
#251 = APPROVAL_ROLE ( '' ) ;
#252 = DIRECTION ( 'NONE',  ( 0.000000000000000000, 0.000000000000000000, 1.000000000000000000 ) ) ;
#253 = DIRECTION ( 'NONE',  ( 1.000000000000000000, 0.000000000000000000, 0.000000000000000000 ) ) ;
#254 = PERSON_AND_ORGANIZATION ( #88, #34 ) ;
#255 = ORIENTED_EDGE ( 'NONE', *, *, #178, .F. ) ;
ENDSEC;
END-ISO-10303-21;
