ISO-10303-21;
HEADER;
FILE_DESCRIPTION (( 'STEP AP203' ),
    '1' );
FILE_NAME ('15e6.STEP',
    '2023-01-31T14:48:17',
    ( '' ),
    ( '' ),
    'SwSTEP 2.0',
    'SolidWorks 2019',
    '' );
FILE_SCHEMA (( 'CONFIG_CONTROL_DESIGN' ));
ENDSEC;

DATA;
#1 = APPLICATION_PROTOCOL_DEFINITION ( 'international standard', 'config_control_design', 1994, #83 ) ;
#2 = PRODUCT_DEFINITION ( 'NEZNÁMÝ', '', #35, #156 ) ;
#3 = PERSON_AND_ORGANIZATION_ROLE ( 'design_supplier' ) ;
#4 = ORIENTED_EDGE ( 'NONE', *, *, #251, .F. ) ;
#5 = PERSON_AND_ORGANIZATION_ROLE ( 'creator' ) ;
#6 = ORIENTED_EDGE ( 'NONE', *, *, #88, .T. ) ;
#7 = EDGE_CURVE ( 'NONE', #242, #232, #158, .T. ) ;
#8 = PERSON_AND_ORGANIZATION ( #193, #150 ) ;
#9 = AXIS2_PLACEMENT_3D ( 'NONE', #144, #178, #145 ) ;
#10 = VERTEX_POINT ( 'NONE', #109 ) ;
#11 = APPROVAL_STATUS ( 'not_yet_approved' ) ;
#12 = ORIENTED_EDGE ( 'NONE', *, *, #20, .T. ) ;
#13 = AXIS2_PLACEMENT_3D ( 'NONE', #189, #192, #93 ) ;
#14 = DIRECTION ( 'NONE',  ( 1.000000000000000000, 0.000000000000000000, 0.000000000000000000 ) ) ;
#15 = CC_DESIGN_PERSON_AND_ORGANIZATION_ASSIGNMENT ( #146, #221, ( #2 ) ) ;
#16 = CC_DESIGN_APPROVAL ( #207, ( #2 ) ) ;
#17 = DIRECTION ( 'NONE',  ( -0.000000000000000000, -0.000000000000000000, -1.000000000000000000 ) ) ;
#18 = CARTESIAN_POINT ( 'NONE',  ( 0.000000000000000000, 0.000000000000000000, 100.0000000000000000 ) ) ;
#19 = ORIENTED_EDGE ( 'NONE', *, *, #7, .T. ) ;
#20 = EDGE_CURVE ( 'NONE', #225, #168, #139, .T. ) ;
#21 = ORIENTED_EDGE ( 'NONE', *, *, #20, .F. ) ;
#22 = MECHANICAL_CONTEXT ( 'NONE', #165, 'mechanical' ) ;
#23 = APPROVAL_ROLE ( '' ) ;
#24 = FACE_OUTER_BOUND ( 'NONE', #148, .T. ) ;
#25 = DIRECTION ( 'NONE',  ( -0.000000000000000000, -0.000000000000000000, -1.000000000000000000 ) ) ;
#26 = AXIS2_PLACEMENT_3D ( 'NONE', #62, #44, #61 ) ;
#27 = VERTEX_POINT ( 'NONE', #246 ) ;
#28 = CIRCLE ( 'NONE', #40, 1.250000000000000000 ) ;
#29 = PERSON_AND_ORGANIZATION ( #193, #150 ) ;
#30 = ORIENTED_EDGE ( 'NONE', *, *, #227, .T. ) ;
#31 = ADVANCED_FACE ( 'NONE', ( #57, #72 ), #32, .T. ) ;
#32 = PLANE ( 'NONE',  #214 ) ;
#33 = VECTOR ( 'NONE', #157, 1000.000000000000000 ) ;
#34 = CARTESIAN_POINT ( 'NONE',  ( 0.000000000000000000, 0.000000000000000000, 100.0000000000000000 ) ) ;
#35 = PRODUCT_DEFINITION_FORMATION_WITH_SPECIFIED_SOURCE ( 'LIBOVOLNÝ', '', #100, .NOT_KNOWN. ) ;
#36 = DIRECTION ( 'NONE',  ( 0.000000000000000000, 0.000000000000000000, 1.000000000000000000 ) ) ;
#37 = DIRECTION ( 'NONE',  ( 1.000000000000000000, 0.000000000000000000, -0.000000000000000000 ) ) ;
#38 = EDGE_CURVE ( 'NONE', #10, #168, #231, .T. ) ;
#39 = CARTESIAN_POINT ( 'NONE',  ( 1.250000000000000000, 1.530808498934191571E-16, 1.199999999999999956 ) ) ;
#40 = AXIS2_PLACEMENT_3D ( 'NONE', #173, #134, #14 ) ;
#41 =( LENGTH_UNIT ( ) NAMED_UNIT ( * ) SI_UNIT ( .MILLI., .METRE. ) );
#42 = VECTOR ( 'NONE', #102, 1000.000000000000000 ) ;
#43 = EDGE_CURVE ( 'NONE', #242, #132, #28, .T. ) ;
#44 = DIRECTION ( 'NONE',  ( 0.000000000000000000, 0.000000000000000000, 1.000000000000000000 ) ) ;
#45 = DIRECTION ( 'NONE',  ( 1.000000000000000000, 0.000000000000000000, 0.000000000000000000 ) ) ;
#46 = CC_DESIGN_DATE_AND_TIME_ASSIGNMENT ( #77, #252, ( #2 ) ) ;
#47 = AXIS2_PLACEMENT_3D ( 'NONE', #137, #53, #213 ) ;
#48 = APPROVAL_ROLE ( '' ) ;
#49 = ORIENTED_EDGE ( 'NONE', *, *, #245, .T. ) ;
#50 = ORIENTED_EDGE ( 'NONE', *, *, #43, .T. ) ;
#51 = ORIENTED_EDGE ( 'NONE', *, *, #38, .T. ) ;
#52 = CARTESIAN_POINT ( 'NONE',  ( -0.5000000000000000000, 0.000000000000000000, 100.0000000000000000 ) ) ;
#53 = DIRECTION ( 'NONE',  ( -0.000000000000000000, -0.000000000000000000, -1.000000000000000000 ) ) ;
#54 = CARTESIAN_POINT ( 'NONE',  ( 0.000000000000000000, 0.000000000000000000, 100.0000000000000000 ) ) ;
#55 = CYLINDRICAL_SURFACE ( 'NONE', #180, 1.250000000000000000 ) ;
#56 = CC_DESIGN_PERSON_AND_ORGANIZATION_ASSIGNMENT ( #131, #3, ( #35 ) ) ;
#57 = FACE_BOUND ( 'NONE', #239, .T. ) ;
#58 = AXIS2_PLACEMENT_3D ( 'NONE', #135, #187, #113 ) ;
#59 = PERSON_AND_ORGANIZATION ( #193, #150 ) ;
#60 = AXIS2_PLACEMENT_3D ( 'NONE', #34, #91, #155 ) ;
#61 = DIRECTION ( 'NONE',  ( 1.000000000000000000, 0.000000000000000000, 0.000000000000000000 ) ) ;
#62 = CARTESIAN_POINT ( 'NONE',  ( 0.000000000000000000, 0.000000000000000000, 1.199999999999999956 ) ) ;
#63 = DIRECTION ( 'NONE',  ( 0.000000000000000000, 0.000000000000000000, 1.000000000000000000 ) ) ;
#64 = DATE_AND_TIME ( #238, #103 ) ;
#65 = ORIENTED_EDGE ( 'NONE', *, *, #196, .F. ) ;
#66 = LOCAL_TIME ( 15, 48, 17.00000000000000000, #167 ) ;
#67 = APPROVAL_DATE_TIME ( #240, #164 ) ;
#68 = EDGE_LOOP ( 'NONE', ( #228, #108 ) ) ;
#69 = ORIENTED_EDGE ( 'NONE', *, *, #227, .F. ) ;
#70 = MANIFOLD_SOLID_BREP ( 'Pøidat vysunutím3', #152 ) ;
#71 = CYLINDRICAL_SURFACE ( 'NONE', #47, 1.250000000000000000 ) ;
#72 = FACE_OUTER_BOUND ( 'NONE', #182, .T. ) ;
#73 = PLANE ( 'NONE',  #116 ) ;
#74 = DIRECTION ( 'NONE',  ( -0.000000000000000000, -0.000000000000000000, -1.000000000000000000 ) ) ;
#75 = PLANE ( 'NONE',  #201 ) ;
#76 = UNCERTAINTY_MEASURE_WITH_UNIT (LENGTH_MEASURE( 1.000000000000000082E-05 ), #41, 'distance_accuracy_value', 'NONE');
#77 = DATE_AND_TIME ( #175, #107 ) ;
#78 =( NAMED_UNIT ( * ) SI_UNIT ( $, .STERADIAN. ) SOLID_ANGLE_UNIT ( ) );
#79 = CALENDAR_DATE ( 2023, 31, 1 ) ;
#80 = EDGE_CURVE ( 'NONE', #132, #104, #174, .T. ) ;
#81 = COORDINATED_UNIVERSAL_TIME_OFFSET ( 1, 0, .AHEAD. ) ;
#82 = SECURITY_CLASSIFICATION ( '', '', #224 ) ;
#83 = APPLICATION_CONTEXT ( 'configuration controlled 3d designs of mechanical parts and assemblies' ) ;
#84 = DATE_AND_TIME ( #147, #66 ) ;
#85 = ORIENTED_EDGE ( 'NONE', *, *, #101, .T. ) ;
#86 = APPROVAL_DATE_TIME ( #64, #162 ) ;
#87 = ORIENTED_EDGE ( 'NONE', *, *, #7, .F. ) ;
#88 = EDGE_CURVE ( 'NONE', #104, #232, #98, .T. ) ;
#89 = DIRECTION ( 'NONE',  ( 1.000000000000000000, 0.000000000000000000, -0.000000000000000000 ) ) ;
#90 = LOCAL_TIME ( 15, 48, 17.00000000000000000, #81 ) ;
#91 = DIRECTION ( 'NONE',  ( -0.000000000000000000, -0.000000000000000000, -1.000000000000000000 ) ) ;
#92 = FACE_OUTER_BOUND ( 'NONE', #68, .T. ) ;
#93 = DIRECTION ( 'NONE',  ( 1.000000000000000000, 0.000000000000000000, 0.000000000000000000 ) ) ;
#94 = CC_DESIGN_SECURITY_CLASSIFICATION ( #82, ( #35 ) ) ;
#95 = DIRECTION ( 'NONE',  ( 1.000000000000000000, 0.000000000000000000, -0.000000000000000000 ) ) ;
#96 = DIRECTION ( 'NONE',  ( -1.000000000000000000, 0.000000000000000000, 0.000000000000000000 ) ) ;
#97 = COORDINATED_UNIVERSAL_TIME_OFFSET ( 1, 0, .AHEAD. ) ;
#98 = CIRCLE ( 'NONE', #13, 1.250000000000000000 ) ;
#99 = CARTESIAN_POINT ( 'NONE',  ( -1.250000000000000000, 0.000000000000000000, 0.000000000000000000 ) ) ;
#100 = PRODUCT ( '15e6', '15e6', '', ( #22 ) ) ;
#101 = EDGE_CURVE ( 'NONE', #232, #104, #119, .T. ) ;
#102 = DIRECTION ( 'NONE',  ( -0.000000000000000000, -0.000000000000000000, -1.000000000000000000 ) ) ;
#103 = LOCAL_TIME ( 15, 48, 17.00000000000000000, #125 ) ;
#104 = VERTEX_POINT ( 'NONE', #194 ) ;
#105 = CALENDAR_DATE ( 2023, 31, 1 ) ;
#106 = ORIENTED_EDGE ( 'NONE', *, *, #80, .F. ) ;
#107 = LOCAL_TIME ( 15, 48, 17.00000000000000000, #234 ) ;
#108 = ORIENTED_EDGE ( 'NONE', *, *, #88, .F. ) ;
#109 = CARTESIAN_POINT ( 'NONE',  ( -0.5000000000000000000, 0.000000000000000000, 100.0000000000000000 ) ) ;
#110 = DIRECTION ( 'NONE',  ( 1.000000000000000000, 0.000000000000000000, 0.000000000000000000 ) ) ;
#111 =( GEOMETRIC_REPRESENTATION_CONTEXT ( 3 ) GLOBAL_UNCERTAINTY_ASSIGNED_CONTEXT ( ( #76 ) ) GLOBAL_UNIT_ASSIGNED_CONTEXT ( ( #41, #255, #78 ) ) REPRESENTATION_CONTEXT ( 'NONE', 'WORKASPACE' ) );
#112 = DIRECTION ( 'NONE',  ( 0.000000000000000000, 0.000000000000000000, 1.000000000000000000 ) ) ;
#113 = DIRECTION ( 'NONE',  ( 1.000000000000000000, 0.000000000000000000, 0.000000000000000000 ) ) ;
#114 = CARTESIAN_POINT ( 'NONE',  ( 0.000000000000000000, 0.000000000000000000, 1.199999999999999956 ) ) ;
#115 = DIRECTION ( 'NONE',  ( 1.000000000000000000, 0.000000000000000000, 0.000000000000000000 ) ) ;
#116 = AXIS2_PLACEMENT_3D ( 'NONE', #136, #212, #37 ) ;
#117 = APPROVAL_STATUS ( 'not_yet_approved' ) ;
#118 = PERSON_AND_ORGANIZATION_ROLE ( 'design_owner' ) ;
#119 = CIRCLE ( 'NONE', #160, 1.250000000000000000 ) ;
#120 = PERSON_AND_ORGANIZATION ( #193, #150 ) ;
#121 = APPROVAL_PERSON_ORGANIZATION ( #59, #164, #23 ) ;
#122 = CIRCLE ( 'NONE', #9, 0.5000000000000000000 ) ;
#123 = APPROVAL_ROLE ( '' ) ;
#124 = CC_DESIGN_DATE_AND_TIME_ASSIGNMENT ( #84, #204, ( #82 ) ) ;
#125 = COORDINATED_UNIVERSAL_TIME_OFFSET ( 1, 0, .AHEAD. ) ;
#126 = VECTOR ( 'NONE', #250, 1000.000000000000000 ) ;
#127 = ORIENTED_EDGE ( 'NONE', *, *, #80, .T. ) ;
#128 = AXIS2_PLACEMENT_3D ( 'NONE', #54, #210, #190 ) ;
#129 = PERSON_AND_ORGANIZATION ( #193, #150 ) ;
#130 = ORIENTED_EDGE ( 'NONE', *, *, #38, .F. ) ;
#131 = PERSON_AND_ORGANIZATION ( #193, #150 ) ;
#132 = VERTEX_POINT ( 'NONE', #39 ) ;
#133 = CARTESIAN_POINT ( 'NONE',  ( 1.250000000000000000, 1.530808498934191571E-16, 1.199999999999999956 ) ) ;
#134 = DIRECTION ( 'NONE',  ( 0.000000000000000000, 0.000000000000000000, 1.000000000000000000 ) ) ;
#135 = CARTESIAN_POINT ( 'NONE',  ( 0.000000000000000000, 0.000000000000000000, 1.199999999999999956 ) ) ;
#136 = CARTESIAN_POINT ( 'NONE',  ( 0.000000000000000000, 0.000000000000000000, 0.000000000000000000 ) ) ;
#137 = CARTESIAN_POINT ( 'NONE',  ( 0.000000000000000000, 0.000000000000000000, 1.199999999999999956 ) ) ;
#138 = ADVANCED_FACE ( 'NONE', ( #248 ), #75, .T. ) ;
#139 = CIRCLE ( 'NONE', #58, 0.5000000000000000000 ) ;
#140 = LINE ( 'NONE', #235, #42 ) ;
#141 = CIRCLE ( 'NONE', #26, 1.250000000000000000 ) ;
#142 = DATE_AND_TIME ( #79, #90 ) ;
#143 = ADVANCED_FACE ( 'NONE', ( #233 ), #55, .T. ) ;
#144 = CARTESIAN_POINT ( 'NONE',  ( 0.000000000000000000, 0.000000000000000000, 1.199999999999999956 ) ) ;
#145 = DIRECTION ( 'NONE',  ( 1.000000000000000000, 0.000000000000000000, 0.000000000000000000 ) ) ;
#146 = PERSON_AND_ORGANIZATION ( #193, #150 ) ;
#147 = CALENDAR_DATE ( 2023, 31, 1 ) ;
#148 = EDGE_LOOP ( 'NONE', ( #65, #30, #12, #130 ) ) ;
#149 = ORIENTED_EDGE ( 'NONE', *, *, #251, .T. ) ;
#150 = ORGANIZATION ( 'NEURÈENÝ', 'NEURÈENÝ', '' ) ;
#151 = ORIENTED_EDGE ( 'NONE', *, *, #183, .F. ) ;
#152 = CLOSED_SHELL ( 'NONE', ( #211, #169, #143, #31, #191, #179, #138 ) ) ;
#153 = PRODUCT_RELATED_PRODUCT_CATEGORY ( 'detail', '', ( #100 ) ) ;
#154 = CARTESIAN_POINT ( 'NONE',  ( 0.000000000000000000, 0.000000000000000000, 1.199999999999999956 ) ) ;
#155 = DIRECTION ( 'NONE',  ( -1.000000000000000000, 0.000000000000000000, 0.000000000000000000 ) ) ;
#156 = DESIGN_CONTEXT ( 'detailed design', #83, 'design' ) ;
#157 = DIRECTION ( 'NONE',  ( -0.000000000000000000, -0.000000000000000000, -1.000000000000000000 ) ) ;
#158 = LINE ( 'NONE', #159, #223 ) ;
#159 = CARTESIAN_POINT ( 'NONE',  ( -1.250000000000000000, 0.000000000000000000, 1.199999999999999956 ) ) ;
#160 = AXIS2_PLACEMENT_3D ( 'NONE', #171, #208, #110 ) ;
#161 = CYLINDRICAL_SURFACE ( 'NONE', #243, 0.5000000000000000000 ) ;
#162 = APPROVAL ( #11, 'NEURÈENÝ' ) ;
#163 = AXIS2_PLACEMENT_3D ( 'NONE', #177, #63, #115 ) ;
#164 = APPROVAL ( #117, 'NEURÈENÝ' ) ;
#165 = APPLICATION_CONTEXT ( 'configuration controlled 3d designs of mechanical parts and assemblies' ) ;
#166 = PERSON_AND_ORGANIZATION_ROLE ( 'classification_officer' ) ;
#167 = COORDINATED_UNIVERSAL_TIME_OFFSET ( 1, 0, .AHEAD. ) ;
#168 = VERTEX_POINT ( 'NONE', #170 ) ;
#169 = ADVANCED_FACE ( 'NONE', ( #244 ), #71, .T. ) ;
#170 = CARTESIAN_POINT ( 'NONE',  ( -0.5000000000000000000, 0.000000000000000000, 1.199999999999999956 ) ) ;
#171 = CARTESIAN_POINT ( 'NONE',  ( 0.000000000000000000, 0.000000000000000000, 0.000000000000000000 ) ) ;
#172 = CYLINDRICAL_SURFACE ( 'NONE', #60, 0.5000000000000000000 ) ;
#173 = CARTESIAN_POINT ( 'NONE',  ( 0.000000000000000000, 0.000000000000000000, 1.199999999999999956 ) ) ;
#174 = LINE ( 'NONE', #133, #33 ) ;
#175 = CALENDAR_DATE ( 2023, 31, 1 ) ;
#176 = CARTESIAN_POINT ( 'NONE',  ( 0.5000000000000000000, 6.123233995736766036E-17, 1.199999999999999956 ) ) ;
#177 = CARTESIAN_POINT ( 'NONE',  ( 0.000000000000000000, 0.000000000000000000, 0.000000000000000000 ) ) ;
#178 = DIRECTION ( 'NONE',  ( 0.000000000000000000, 0.000000000000000000, 1.000000000000000000 ) ) ;
#179 = ADVANCED_FACE ( 'NONE', ( #209 ), #172, .T. ) ;
#180 = AXIS2_PLACEMENT_3D ( 'NONE', #154, #17, #230 ) ;
#181 = CIRCLE ( 'NONE', #206, 0.5000000000000000000 ) ;
#182 = EDGE_LOOP ( 'NONE', ( #50, #49 ) ) ;
#183 = EDGE_CURVE ( 'NONE', #10, #27, #188, .T. ) ;
#184 = EDGE_LOOP ( 'NONE', ( #247, #127, #6, #87 ) ) ;
#185 = ORIENTED_EDGE ( 'NONE', *, *, #43, .F. ) ;
#186 = ORIENTED_EDGE ( 'NONE', *, *, #196, .T. ) ;
#187 = DIRECTION ( 'NONE',  ( 0.000000000000000000, 0.000000000000000000, 1.000000000000000000 ) ) ;
#188 = CIRCLE ( 'NONE', #128, 0.5000000000000000000 ) ;
#189 = CARTESIAN_POINT ( 'NONE',  ( 0.000000000000000000, 0.000000000000000000, 0.000000000000000000 ) ) ;
#190 = DIRECTION ( 'NONE',  ( 1.000000000000000000, 0.000000000000000000, 0.000000000000000000 ) ) ;
#191 = ADVANCED_FACE ( 'NONE', ( #92 ), #73, .F. ) ;
#192 = DIRECTION ( 'NONE',  ( 0.000000000000000000, 0.000000000000000000, 1.000000000000000000 ) ) ;
#193 = PERSON ( 'NEURÈENÝ', 'NEURÈENÝ', 'NEURÈENÝ', ('NEURÈENÝ'), ('NEURÈENÝ'), ('NEURÈENÝ') ) ;
#194 = CARTESIAN_POINT ( 'NONE',  ( 1.250000000000000000, 1.530808498934191571E-16, 0.000000000000000000 ) ) ;
#195 = LOCAL_TIME ( 15, 48, 17.00000000000000000, #97 ) ;
#196 = EDGE_CURVE ( 'NONE', #27, #10, #181, .T. ) ;
#197 = CARTESIAN_POINT ( 'NONE',  ( 0.000000000000000000, 0.000000000000000000, 100.0000000000000000 ) ) ;
#198 = APPROVAL_STATUS ( 'not_yet_approved' ) ;
#199 = CARTESIAN_POINT ( 'NONE',  ( -1.250000000000000000, 0.000000000000000000, 1.199999999999999956 ) ) ;
#200 = DIRECTION ( 'NONE',  ( 0.000000000000000000, 0.000000000000000000, 1.000000000000000000 ) ) ;
#201 = AXIS2_PLACEMENT_3D ( 'NONE', #18, #36, #89 ) ;
#202 = ORIENTED_EDGE ( 'NONE', *, *, #183, .T. ) ;
#203 = SHAPE_DEFINITION_REPRESENTATION ( #222, #217 ) ;
#204 = DATE_TIME_ROLE ( 'classification_date' ) ;
#205 = EDGE_LOOP ( 'NONE', ( #106, #185, #19, #85 ) ) ;
#206 = AXIS2_PLACEMENT_3D ( 'NONE', #216, #200, #45 ) ;
#207 = APPROVAL ( #198, 'NEURÈENÝ' ) ;
#208 = DIRECTION ( 'NONE',  ( 0.000000000000000000, 0.000000000000000000, 1.000000000000000000 ) ) ;
#209 = FACE_OUTER_BOUND ( 'NONE', #226, .T. ) ;
#210 = DIRECTION ( 'NONE',  ( 0.000000000000000000, 0.000000000000000000, 1.000000000000000000 ) ) ;
#211 = ADVANCED_FACE ( 'NONE', ( #24 ), #161, .T. ) ;
#212 = DIRECTION ( 'NONE',  ( 0.000000000000000000, 0.000000000000000000, 1.000000000000000000 ) ) ;
#213 = DIRECTION ( 'NONE',  ( -1.000000000000000000, 0.000000000000000000, 0.000000000000000000 ) ) ;
#214 = AXIS2_PLACEMENT_3D ( 'NONE', #114, #112, #95 ) ;
#215 = CC_DESIGN_PERSON_AND_ORGANIZATION_ASSIGNMENT ( #29, #166, ( #82 ) ) ;
#216 = CARTESIAN_POINT ( 'NONE',  ( 0.000000000000000000, 0.000000000000000000, 100.0000000000000000 ) ) ;
#217 = ADVANCED_BREP_SHAPE_REPRESENTATION ( '15e6', ( #70, #163 ), #111 ) ;
#218 = PERSON_AND_ORGANIZATION ( #193, #150 ) ;
#219 = CC_DESIGN_PERSON_AND_ORGANIZATION_ASSIGNMENT ( #120, #118, ( #100 ) ) ;
#220 = APPROVAL_PERSON_ORGANIZATION ( #218, #207, #123 ) ;
#221 = PERSON_AND_ORGANIZATION_ROLE ( 'creator' ) ;
#222 = PRODUCT_DEFINITION_SHAPE ( 'NONE', 'NONE',  #2 ) ;
#223 = VECTOR ( 'NONE', #74, 1000.000000000000000 ) ;
#224 = SECURITY_CLASSIFICATION_LEVEL ( 'unclassified' ) ;
#225 = VERTEX_POINT ( 'NONE', #176 ) ;
#226 = EDGE_LOOP ( 'NONE', ( #69, #151, #51, #149 ) ) ;
#227 = EDGE_CURVE ( 'NONE', #27, #225, #140, .T. ) ;
#228 = ORIENTED_EDGE ( 'NONE', *, *, #101, .F. ) ;
#229 = APPROVAL_PERSON_ORGANIZATION ( #8, #162, #48 ) ;
#230 = DIRECTION ( 'NONE',  ( -1.000000000000000000, 0.000000000000000000, 0.000000000000000000 ) ) ;
#231 = LINE ( 'NONE', #52, #126 ) ;
#232 = VERTEX_POINT ( 'NONE', #99 ) ;
#233 = FACE_OUTER_BOUND ( 'NONE', #205, .T. ) ;
#234 = COORDINATED_UNIVERSAL_TIME_OFFSET ( 1, 0, .AHEAD. ) ;
#235 = CARTESIAN_POINT ( 'NONE',  ( 0.5000000000000000000, 6.123233995736766036E-17, 100.0000000000000000 ) ) ;
#236 = APPROVAL_DATE_TIME ( #142, #207 ) ;
#237 = CC_DESIGN_APPROVAL ( #164, ( #35 ) ) ;
#238 = CALENDAR_DATE ( 2023, 31, 1 ) ;
#239 = EDGE_LOOP ( 'NONE', ( #4, #21 ) ) ;
#240 = DATE_AND_TIME ( #105, #195 ) ;
#241 = EDGE_LOOP ( 'NONE', ( #202, #186 ) ) ;
#242 = VERTEX_POINT ( 'NONE', #199 ) ;
#243 = AXIS2_PLACEMENT_3D ( 'NONE', #197, #25, #96 ) ;
#244 = FACE_OUTER_BOUND ( 'NONE', #184, .T. ) ;
#245 = EDGE_CURVE ( 'NONE', #132, #242, #141, .T. ) ;
#246 = CARTESIAN_POINT ( 'NONE',  ( 0.5000000000000000000, 6.123233995736766036E-17, 100.0000000000000000 ) ) ;
#247 = ORIENTED_EDGE ( 'NONE', *, *, #245, .F. ) ;
#248 = FACE_OUTER_BOUND ( 'NONE', #241, .T. ) ;
#249 = CC_DESIGN_APPROVAL ( #162, ( #82 ) ) ;
#250 = DIRECTION ( 'NONE',  ( -0.000000000000000000, -0.000000000000000000, -1.000000000000000000 ) ) ;
#251 = EDGE_CURVE ( 'NONE', #168, #225, #122, .T. ) ;
#252 = DATE_TIME_ROLE ( 'creation_date' ) ;
#253 = CC_DESIGN_PERSON_AND_ORGANIZATION_ASSIGNMENT ( #129, #5, ( #35 ) ) ;
#254 = APPLICATION_PROTOCOL_DEFINITION ( 'international standard', 'config_control_design', 1994, #165 ) ;
#255 =( NAMED_UNIT ( * ) PLANE_ANGLE_UNIT ( ) SI_UNIT ( $, .RADIAN. ) );
ENDSEC;
END-ISO-10303-21;
