ISO-10303-21;
HEADER;
FILE_DESCRIPTION (( 'STEP AP203' ),
    '1' );
FILE_NAME ('1427.STEP',
    '2023-02-13T14:05:14',
    ( '' ),
    ( '' ),
    'SwSTEP 2.0',
    'SolidWorks 2019',
    '' );
FILE_SCHEMA (( 'CONFIG_CONTROL_DESIGN' ));
ENDSEC;

DATA;
#1 = ORIENTED_EDGE ( 'NONE', *, *, #122, .F. ) ;
#2 = CC_DESIGN_DATE_AND_TIME_ASSIGNMENT ( #3, #211, ( #202 ) ) ;
#3 = DATE_AND_TIME ( #69, #253 ) ;
#4 = ORIENTED_EDGE ( 'NONE', *, *, #134, .T. ) ;
#5 = VERTEX_POINT ( 'NONE', #218 ) ;
#6 = CC_DESIGN_PERSON_AND_ORGANIZATION_ASSIGNMENT ( #169, #189, ( #124 ) ) ;
#7 = ORIENTED_EDGE ( 'NONE', *, *, #25, .F. ) ;
#8 = LINE ( 'NONE', #182, #71 ) ;
#9 = CC_DESIGN_PERSON_AND_ORGANIZATION_ASSIGNMENT ( #76, #37, ( #124 ) ) ;
#10 = AXIS2_PLACEMENT_3D ( 'NONE', #165, #47, #105 ) ;
#11 = AXIS2_PLACEMENT_3D ( 'NONE', #78, #118, #116 ) ;
#12 = DIRECTION ( 'NONE',  ( 1.000000000000000000, 0.000000000000000000, 0.000000000000000000 ) ) ;
#13 = CYLINDRICAL_SURFACE ( 'NONE', #237, 6.000000000000000888 ) ;
#14 = CARTESIAN_POINT ( 'NONE',  ( 0.000000000000000000, 0.000000000000000000, 0.000000000000000000 ) ) ;
#15 = CALENDAR_DATE ( 2023, 13, 2 ) ;
#16 = CALENDAR_DATE ( 2023, 13, 2 ) ;
#17 = ORIENTED_EDGE ( 'NONE', *, *, #134, .F. ) ;
#18 = LOCAL_TIME ( 15, 5, 14.00000000000000000, #108 ) ;
#19 = APPLICATION_CONTEXT ( 'configuration controlled 3d designs of mechanical parts and assemblies' ) ;
#20 = DIRECTION ( 'NONE',  ( 1.000000000000000000, 0.000000000000000000, 0.000000000000000000 ) ) ;
#21 = CC_DESIGN_PERSON_AND_ORGANIZATION_ASSIGNMENT ( #96, #74, ( #89 ) ) ;
#22 = APPROVAL_DATE_TIME ( #254, #208 ) ;
#23 = CARTESIAN_POINT ( 'NONE',  ( 3.100000000000000089, 3.796405077356794918E-16, 315.0000000000000000 ) ) ;
#24 = ORIENTED_EDGE ( 'NONE', *, *, #85, .F. ) ;
#25 = EDGE_CURVE ( 'NONE', #176, #5, #79, .T. ) ;
#26 = VERTEX_POINT ( 'NONE', #214 ) ;
#27 = VECTOR ( 'NONE', #72, 1000.000000000000000 ) ;
#28 = DIRECTION ( 'NONE',  ( 1.000000000000000000, 0.000000000000000000, 0.000000000000000000 ) ) ;
#29 = DIRECTION ( 'NONE',  ( -1.000000000000000000, 0.000000000000000000, 0.000000000000000000 ) ) ;
#30 = CC_DESIGN_SECURITY_CLASSIFICATION ( #89, ( #124 ) ) ;
#31 = DIRECTION ( 'NONE',  ( 1.000000000000000000, 0.000000000000000000, 0.000000000000000000 ) ) ;
#32 = APPROVAL_DATE_TIME ( #90, #166 ) ;
#33 = AXIS2_PLACEMENT_3D ( 'NONE', #65, #144, #226 ) ;
#34 = APPROVAL_ROLE ( '' ) ;
#35 = ADVANCED_FACE ( 'NONE', ( #39 ), #199, .T. ) ;
#36 = CARTESIAN_POINT ( 'NONE',  ( 0.000000000000000000, 0.000000000000000000, 0.000000000000000000 ) ) ;
#37 = PERSON_AND_ORGANIZATION_ROLE ( 'creator' ) ;
#38 = CARTESIAN_POINT ( 'NONE',  ( 0.000000000000000000, 0.000000000000000000, 315.0000000000000000 ) ) ;
#39 = FACE_OUTER_BOUND ( 'NONE', #117, .T. ) ;
#40 = VERTEX_POINT ( 'NONE', #201 ) ;
#41 = DIRECTION ( 'NONE',  ( 1.000000000000000000, 0.000000000000000000, 0.000000000000000000 ) ) ;
#42 = CC_DESIGN_APPROVAL ( #166, ( #89 ) ) ;
#43 = ADVANCED_FACE ( 'NONE', ( #172 ), #255, .T. ) ;
#44 = DIRECTION ( 'NONE',  ( 0.000000000000000000, 0.000000000000000000, 1.000000000000000000 ) ) ;
#45 = PLANE ( 'NONE',  #151 ) ;
#46 = AXIS2_PLACEMENT_3D ( 'NONE', #121, #204, #29 ) ;
#47 = DIRECTION ( 'NONE',  ( 0.000000000000000000, 0.000000000000000000, 1.000000000000000000 ) ) ;
#48 = PERSON ( 'NEURÈENÝ', 'NEURÈENÝ', 'NEURÈENÝ', ('NEURÈENÝ'), ('NEURÈENÝ'), ('NEURÈENÝ') ) ;
#49 = EDGE_CURVE ( 'NONE', #176, #98, #97, .T. ) ;
#50 = CARTESIAN_POINT ( 'NONE',  ( 0.000000000000000000, 0.000000000000000000, 0.000000000000000000 ) ) ;
#51 = APPROVAL_STATUS ( 'not_yet_approved' ) ;
#52 = APPROVAL_STATUS ( 'not_yet_approved' ) ;
#53 = CALENDAR_DATE ( 2023, 13, 2 ) ;
#54 = AXIS2_PLACEMENT_3D ( 'NONE', #36, #196, #20 ) ;
#55 = CC_DESIGN_APPROVAL ( #208, ( #124 ) ) ;
#56 = VERTEX_POINT ( 'NONE', #153 ) ;
#57 = DIRECTION ( 'NONE',  ( -0.000000000000000000, -0.000000000000000000, -1.000000000000000000 ) ) ;
#58 = APPLICATION_PROTOCOL_DEFINITION ( 'international standard', 'config_control_design', 1994, #19 ) ;
#59 = ORIENTED_EDGE ( 'NONE', *, *, #130, .F. ) ;
#60 = DIRECTION ( 'NONE',  ( -1.000000000000000000, 0.000000000000000000, 0.000000000000000000 ) ) ;
#61 = ORIENTED_EDGE ( 'NONE', *, *, #85, .T. ) ;
#62 = AXIS2_PLACEMENT_3D ( 'NONE', #161, #222, #28 ) ;
#63 = APPROVAL_PERSON_ORGANIZATION ( #171, #140, #215 ) ;
#64 = DIRECTION ( 'NONE',  ( 0.000000000000000000, 0.000000000000000000, 1.000000000000000000 ) ) ;
#65 = CARTESIAN_POINT ( 'NONE',  ( 0.000000000000000000, 0.000000000000000000, 5.000000000000000000 ) ) ;
#66 = MANIFOLD_SOLID_BREP ( 'Pøidat vysunutím3', #207 ) ;
#67 = DIRECTION ( 'NONE',  ( 1.000000000000000000, 0.000000000000000000, 0.000000000000000000 ) ) ;
#68 = DIRECTION ( 'NONE',  ( -0.000000000000000000, -0.000000000000000000, -1.000000000000000000 ) ) ;
#69 = CALENDAR_DATE ( 2023, 13, 2 ) ;
#70 = PERSON_AND_ORGANIZATION_ROLE ( 'design_owner' ) ;
#71 = VECTOR ( 'NONE', #184, 1000.000000000000000 ) ;
#72 = DIRECTION ( 'NONE',  ( -0.000000000000000000, -0.000000000000000000, -1.000000000000000000 ) ) ;
#73 = AXIS2_PLACEMENT_3D ( 'NONE', #38, #115, #101 ) ;
#74 = PERSON_AND_ORGANIZATION_ROLE ( 'classification_officer' ) ;
#75 = EDGE_LOOP ( 'NONE', ( #91, #238 ) ) ;
#76 = PERSON_AND_ORGANIZATION ( #48, #119 ) ;
#77 = ORIENTED_EDGE ( 'NONE', *, *, #95, .T. ) ;
#78 = CARTESIAN_POINT ( 'NONE',  ( 0.000000000000000000, 0.000000000000000000, 315.0000000000000000 ) ) ;
#79 = CIRCLE ( 'NONE', #225, 3.100000000000000089 ) ;
#80 = VERTEX_POINT ( 'NONE', #132 ) ;
#81 = CARTESIAN_POINT ( 'NONE',  ( 0.000000000000000000, 0.000000000000000000, 5.000000000000000000 ) ) ;
#82 = CC_DESIGN_PERSON_AND_ORGANIZATION_ASSIGNMENT ( #110, #70, ( #243 ) ) ;
#83 = VECTOR ( 'NONE', #162, 1000.000000000000000 ) ;
#84 = LINE ( 'NONE', #142, #181 ) ;
#85 = EDGE_CURVE ( 'NONE', #26, #80, #190, .T. ) ;
#86 = FACE_OUTER_BOUND ( 'NONE', #75, .T. ) ;
#87 = CARTESIAN_POINT ( 'NONE',  ( 0.000000000000000000, 0.000000000000000000, 315.0000000000000000 ) ) ;
#88 = APPLICATION_CONTEXT ( 'configuration controlled 3d designs of mechanical parts and assemblies' ) ;
#89 = SECURITY_CLASSIFICATION ( '', '', #228 ) ;
#90 = DATE_AND_TIME ( #15, #152 ) ;
#91 = ORIENTED_EDGE ( 'NONE', *, *, #122, .T. ) ;
#92 = ADVANCED_FACE ( 'NONE', ( #94 ), #217, .T. ) ;
#93 = CARTESIAN_POINT ( 'NONE',  ( 0.000000000000000000, 0.000000000000000000, 315.0000000000000000 ) ) ;
#94 = FACE_OUTER_BOUND ( 'NONE', #180, .T. ) ;
#95 = EDGE_CURVE ( 'NONE', #5, #234, #186, .T. ) ;
#96 = PERSON_AND_ORGANIZATION ( #48, #119 ) ;
#97 = LINE ( 'NONE', #23, #27 ) ;
#98 = VERTEX_POINT ( 'NONE', #209 ) ;
#99 = ORIENTED_EDGE ( 'NONE', *, *, #187, .F. ) ;
#100 = EDGE_CURVE ( 'NONE', #56, #40, #231, .T. ) ;
#101 = DIRECTION ( 'NONE',  ( -1.000000000000000000, 0.000000000000000000, 0.000000000000000000 ) ) ;
#102 = CARTESIAN_POINT ( 'NONE',  ( 3.100000000000000089, 3.796405077356794918E-16, 315.0000000000000000 ) ) ;
#103 = CC_DESIGN_APPROVAL ( #140, ( #202 ) ) ;
#104 = AXIS2_PLACEMENT_3D ( 'NONE', #81, #44, #164 ) ;
#105 = DIRECTION ( 'NONE',  ( 1.000000000000000000, 0.000000000000000000, 0.000000000000000000 ) ) ;
#106 = DATE_TIME_ROLE ( 'classification_date' ) ;
#107 = COORDINATED_UNIVERSAL_TIME_OFFSET ( 1, 0, .AHEAD. ) ;
#108 = COORDINATED_UNIVERSAL_TIME_OFFSET ( 1, 0, .AHEAD. ) ;
#109 = EDGE_LOOP ( 'NONE', ( #99, #1, #139, #61 ) ) ;
#110 = PERSON_AND_ORGANIZATION ( #48, #119 ) ;
#111 = CC_DESIGN_PERSON_AND_ORGANIZATION_ASSIGNMENT ( #194, #133, ( #202 ) ) ;
#112 = LOCAL_TIME ( 15, 5, 14.00000000000000000, #128 ) ;
#113 = CARTESIAN_POINT ( 'NONE',  ( 0.000000000000000000, 0.000000000000000000, 315.0000000000000000 ) ) ;
#114 = COORDINATED_UNIVERSAL_TIME_OFFSET ( 1, 0, .AHEAD. ) ;
#115 = DIRECTION ( 'NONE',  ( -0.000000000000000000, -0.000000000000000000, -1.000000000000000000 ) ) ;
#116 = DIRECTION ( 'NONE',  ( 1.000000000000000000, 0.000000000000000000, -0.000000000000000000 ) ) ;
#117 = EDGE_LOOP ( 'NONE', ( #4, #179 ) ) ;
#118 = DIRECTION ( 'NONE',  ( 0.000000000000000000, 0.000000000000000000, 1.000000000000000000 ) ) ;
#119 = ORGANIZATION ( 'NEURÈENÝ', 'NEURÈENÝ', '' ) ;
#120 =( LENGTH_UNIT ( ) NAMED_UNIT ( * ) SI_UNIT ( .MILLI., .METRE. ) );
#121 = CARTESIAN_POINT ( 'NONE',  ( 0.000000000000000000, 0.000000000000000000, 5.000000000000000000 ) ) ;
#122 = EDGE_CURVE ( 'NONE', #40, #56, #174, .T. ) ;
#123 = CYLINDRICAL_SURFACE ( 'NONE', #46, 6.000000000000000888 ) ;
#124 = PRODUCT_DEFINITION_FORMATION_WITH_SPECIFIED_SOURCE ( 'LIBOVOLNÝ', '', #243, .NOT_KNOWN. ) ;
#125 = FACE_OUTER_BOUND ( 'NONE', #198, .T. ) ;
#126 = DIRECTION ( 'NONE',  ( -1.000000000000000000, 0.000000000000000000, 0.000000000000000000 ) ) ;
#127 = ADVANCED_FACE ( 'NONE', ( #125 ), #45, .F. ) ;
#128 = COORDINATED_UNIVERSAL_TIME_OFFSET ( 1, 0, .AHEAD. ) ;
#129 = PERSON_AND_ORGANIZATION ( #48, #119 ) ;
#130 = EDGE_CURVE ( 'NONE', #234, #98, #185, .T. ) ;
#131 = APPROVAL_PERSON_ORGANIZATION ( #129, #208, #154 ) ;
#132 = CARTESIAN_POINT ( 'NONE',  ( 6.000000000000000888, 7.347880794884120722E-16, 0.000000000000000000 ) ) ;
#133 = PERSON_AND_ORGANIZATION_ROLE ( 'creator' ) ;
#134 = EDGE_CURVE ( 'NONE', #5, #176, #138, .T. ) ;
#135 = ORIENTED_EDGE ( 'NONE', *, *, #173, .F. ) ;
#136 = ORIENTED_EDGE ( 'NONE', *, *, #192, .T. ) ;
#137 = APPROVAL_PERSON_ORGANIZATION ( #156, #166, #34 ) ;
#138 = CIRCLE ( 'NONE', #213, 3.100000000000000089 ) ;
#139 = ORIENTED_EDGE ( 'NONE', *, *, #212, .T. ) ;
#140 = APPROVAL ( #51, 'NEURÈENÝ' ) ;
#141 = ORIENTED_EDGE ( 'NONE', *, *, #187, .T. ) ;
#142 = CARTESIAN_POINT ( 'NONE',  ( 6.000000000000000888, 7.347880794884120722E-16, 5.000000000000000000 ) ) ;
#143 = CARTESIAN_POINT ( 'NONE',  ( -3.100000000000000089, 0.000000000000000000, 315.0000000000000000 ) ) ;
#144 = DIRECTION ( 'NONE',  ( 0.000000000000000000, 0.000000000000000000, 1.000000000000000000 ) ) ;
#145 = DIRECTION ( 'NONE',  ( 0.000000000000000000, 0.000000000000000000, 1.000000000000000000 ) ) ;
#146 = FACE_BOUND ( 'NONE', #236, .T. ) ;
#147 = PRODUCT_DEFINITION_SHAPE ( 'NONE', 'NONE',  #202 ) ;
#148 = DESIGN_CONTEXT ( 'detailed design', #19, 'design' ) ;
#149 = APPLICATION_PROTOCOL_DEFINITION ( 'international standard', 'config_control_design', 1994, #88 ) ;
#150 = APPROVAL_STATUS ( 'not_yet_approved' ) ;
#151 = AXIS2_PLACEMENT_3D ( 'NONE', #14, #163, #188 ) ;
#152 = LOCAL_TIME ( 15, 5, 14.00000000000000000, #191 ) ;
#153 = CARTESIAN_POINT ( 'NONE',  ( 6.000000000000000888, 7.347880794884120722E-16, 5.000000000000000000 ) ) ;
#154 = APPROVAL_ROLE ( '' ) ;
#155 = ORIENTED_EDGE ( 'NONE', *, *, #95, .F. ) ;
#156 = PERSON_AND_ORGANIZATION ( #48, #119 ) ;
#157 = ORIENTED_EDGE ( 'NONE', *, *, #49, .T. ) ;
#158 = ADVANCED_FACE ( 'NONE', ( #240 ), #123, .T. ) ;
#159 = ORIENTED_EDGE ( 'NONE', *, *, #212, .F. ) ;
#160 = ORIENTED_EDGE ( 'NONE', *, *, #192, .F. ) ;
#161 = CARTESIAN_POINT ( 'NONE',  ( 0.000000000000000000, 0.000000000000000000, 5.000000000000000000 ) ) ;
#162 = DIRECTION ( 'NONE',  ( -0.000000000000000000, -0.000000000000000000, -1.000000000000000000 ) ) ;
#163 = DIRECTION ( 'NONE',  ( 0.000000000000000000, 0.000000000000000000, 1.000000000000000000 ) ) ;
#164 = DIRECTION ( 'NONE',  ( 1.000000000000000000, 0.000000000000000000, 0.000000000000000000 ) ) ;
#165 = CARTESIAN_POINT ( 'NONE',  ( 0.000000000000000000, 0.000000000000000000, 5.000000000000000000 ) ) ;
#166 = APPROVAL ( #52, 'NEURÈENÝ' ) ;
#167 = AXIS2_PLACEMENT_3D ( 'NONE', #235, #249, #251 ) ;
#168 = APPROVAL_DATE_TIME ( #252, #140 ) ;
#169 = PERSON_AND_ORGANIZATION ( #48, #119 ) ;
#170 = PRODUCT_RELATED_PRODUCT_CATEGORY ( 'detail', '', ( #243 ) ) ;
#171 = PERSON_AND_ORGANIZATION ( #48, #119 ) ;
#172 = FACE_OUTER_BOUND ( 'NONE', #219, .T. ) ;
#173 = EDGE_CURVE ( 'NONE', #80, #26, #206, .T. ) ;
#174 = CIRCLE ( 'NONE', #62, 6.000000000000000888 ) ;
#175 =( GEOMETRIC_REPRESENTATION_CONTEXT ( 3 ) GLOBAL_UNCERTAINTY_ASSIGNED_CONTEXT ( ( #248 ) ) GLOBAL_UNIT_ASSIGNED_CONTEXT ( ( #120, #203, #241 ) ) REPRESENTATION_CONTEXT ( 'NONE', 'WORKASPACE' ) );
#176 = VERTEX_POINT ( 'NONE', #102 ) ;
#177 = CALENDAR_DATE ( 2023, 13, 2 ) ;
#178 = EDGE_LOOP ( 'NONE', ( #239, #141, #193, #159 ) ) ;
#179 = ORIENTED_EDGE ( 'NONE', *, *, #25, .T. ) ;
#180 = EDGE_LOOP ( 'NONE', ( #220, #17, #77, #200 ) ) ;
#181 = VECTOR ( 'NONE', #224, 1000.000000000000000 ) ;
#182 = CARTESIAN_POINT ( 'NONE',  ( -6.000000000000000888, 0.000000000000000000, 5.000000000000000000 ) ) ;
#183 = CARTESIAN_POINT ( 'NONE',  ( -3.100000000000000089, 0.000000000000000000, 5.000000000000000000 ) ) ;
#184 = DIRECTION ( 'NONE',  ( -0.000000000000000000, -0.000000000000000000, -1.000000000000000000 ) ) ;
#185 = CIRCLE ( 'NONE', #104, 3.100000000000000089 ) ;
#186 = LINE ( 'NONE', #143, #83 ) ;
#187 = EDGE_CURVE ( 'NONE', #56, #80, #84, .T. ) ;
#188 = DIRECTION ( 'NONE',  ( 1.000000000000000000, 0.000000000000000000, -0.000000000000000000 ) ) ;
#189 = PERSON_AND_ORGANIZATION_ROLE ( 'design_supplier' ) ;
#190 = CIRCLE ( 'NONE', #54, 6.000000000000000888 ) ;
#191 = COORDINATED_UNIVERSAL_TIME_OFFSET ( 1, 0, .AHEAD. ) ;
#192 = EDGE_CURVE ( 'NONE', #98, #234, #247, .T. ) ;
#193 = ORIENTED_EDGE ( 'NONE', *, *, #173, .T. ) ;
#194 = PERSON_AND_ORGANIZATION ( #48, #119 ) ;
#195 = AXIS2_PLACEMENT_3D ( 'NONE', #113, #57, #60 ) ;
#196 = DIRECTION ( 'NONE',  ( 0.000000000000000000, 0.000000000000000000, 1.000000000000000000 ) ) ;
#197 = SHAPE_DEFINITION_REPRESENTATION ( #147, #221 ) ;
#198 = EDGE_LOOP ( 'NONE', ( #24, #135 ) ) ;
#199 = PLANE ( 'NONE',  #11 ) ;
#200 = ORIENTED_EDGE ( 'NONE', *, *, #130, .T. ) ;
#201 = CARTESIAN_POINT ( 'NONE',  ( -6.000000000000000888, 0.000000000000000000, 5.000000000000000000 ) ) ;
#202 = PRODUCT_DEFINITION ( 'NEZNÁMÝ', '', #124, #148 ) ;
#203 =( NAMED_UNIT ( * ) PLANE_ANGLE_UNIT ( ) SI_UNIT ( $, .RADIAN. ) );
#204 = DIRECTION ( 'NONE',  ( -0.000000000000000000, -0.000000000000000000, -1.000000000000000000 ) ) ;
#205 = DIRECTION ( 'NONE',  ( 0.000000000000000000, 0.000000000000000000, 1.000000000000000000 ) ) ;
#206 = CIRCLE ( 'NONE', #242, 6.000000000000000888 ) ;
#207 = CLOSED_SHELL ( 'NONE', ( #43, #158, #216, #230, #127, #92, #35 ) ) ;
#208 = APPROVAL ( #150, 'NEURÈENÝ' ) ;
#209 = CARTESIAN_POINT ( 'NONE',  ( 3.100000000000000089, 3.796405077356794918E-16, 5.000000000000000000 ) ) ;
#210 = DATE_AND_TIME ( #177, #232 ) ;
#211 = DATE_TIME_ROLE ( 'creation_date' ) ;
#212 = EDGE_CURVE ( 'NONE', #40, #26, #8, .T. ) ;
#213 = AXIS2_PLACEMENT_3D ( 'NONE', #87, #205, #31 ) ;
#214 = CARTESIAN_POINT ( 'NONE',  ( -6.000000000000000888, 0.000000000000000000, 0.000000000000000000 ) ) ;
#215 = APPROVAL_ROLE ( '' ) ;
#216 = ADVANCED_FACE ( 'NONE', ( #245 ), #13, .T. ) ;
#217 = CYLINDRICAL_SURFACE ( 'NONE', #73, 3.100000000000000089 ) ;
#218 = CARTESIAN_POINT ( 'NONE',  ( -3.100000000000000089, 0.000000000000000000, 315.0000000000000000 ) ) ;
#219 = EDGE_LOOP ( 'NONE', ( #7, #157, #136, #155 ) ) ;
#220 = ORIENTED_EDGE ( 'NONE', *, *, #49, .F. ) ;
#221 = ADVANCED_BREP_SHAPE_REPRESENTATION ( '1427', ( #66, #167 ), #175 ) ;
#222 = DIRECTION ( 'NONE',  ( 0.000000000000000000, 0.000000000000000000, 1.000000000000000000 ) ) ;
#223 = CARTESIAN_POINT ( 'NONE',  ( 0.000000000000000000, 0.000000000000000000, 5.000000000000000000 ) ) ;
#224 = DIRECTION ( 'NONE',  ( -0.000000000000000000, -0.000000000000000000, -1.000000000000000000 ) ) ;
#225 = AXIS2_PLACEMENT_3D ( 'NONE', #93, #233, #41 ) ;
#226 = DIRECTION ( 'NONE',  ( 1.000000000000000000, 0.000000000000000000, -0.000000000000000000 ) ) ;
#227 = MECHANICAL_CONTEXT ( 'NONE', #88, 'mechanical' ) ;
#228 = SECURITY_CLASSIFICATION_LEVEL ( 'unclassified' ) ;
#229 = AXIS2_PLACEMENT_3D ( 'NONE', #223, #64, #67 ) ;
#230 = ADVANCED_FACE ( 'NONE', ( #146, #86 ), #244, .T. ) ;
#231 = CIRCLE ( 'NONE', #229, 6.000000000000000888 ) ;
#232 = LOCAL_TIME ( 15, 5, 14.00000000000000000, #107 ) ;
#233 = DIRECTION ( 'NONE',  ( 0.000000000000000000, 0.000000000000000000, 1.000000000000000000 ) ) ;
#234 = VERTEX_POINT ( 'NONE', #183 ) ;
#235 = CARTESIAN_POINT ( 'NONE',  ( 0.000000000000000000, 0.000000000000000000, 0.000000000000000000 ) ) ;
#236 = EDGE_LOOP ( 'NONE', ( #59, #160 ) ) ;
#237 = AXIS2_PLACEMENT_3D ( 'NONE', #246, #68, #126 ) ;
#238 = ORIENTED_EDGE ( 'NONE', *, *, #100, .T. ) ;
#239 = ORIENTED_EDGE ( 'NONE', *, *, #100, .F. ) ;
#240 = FACE_OUTER_BOUND ( 'NONE', #178, .T. ) ;
#241 =( NAMED_UNIT ( * ) SI_UNIT ( $, .STERADIAN. ) SOLID_ANGLE_UNIT ( ) );
#242 = AXIS2_PLACEMENT_3D ( 'NONE', #50, #145, #12 ) ;
#243 = PRODUCT ( '1427', '1427', '', ( #227 ) ) ;
#244 = PLANE ( 'NONE',  #33 ) ;
#245 = FACE_OUTER_BOUND ( 'NONE', #109, .T. ) ;
#246 = CARTESIAN_POINT ( 'NONE',  ( 0.000000000000000000, 0.000000000000000000, 5.000000000000000000 ) ) ;
#247 = CIRCLE ( 'NONE', #10, 3.100000000000000089 ) ;
#248 = UNCERTAINTY_MEASURE_WITH_UNIT (LENGTH_MEASURE( 1.000000000000000082E-05 ), #120, 'distance_accuracy_value', 'NONE');
#249 = DIRECTION ( 'NONE',  ( 0.000000000000000000, 0.000000000000000000, 1.000000000000000000 ) ) ;
#250 = CC_DESIGN_DATE_AND_TIME_ASSIGNMENT ( #210, #106, ( #89 ) ) ;
#251 = DIRECTION ( 'NONE',  ( 1.000000000000000000, 0.000000000000000000, 0.000000000000000000 ) ) ;
#252 = DATE_AND_TIME ( #53, #112 ) ;
#253 = LOCAL_TIME ( 15, 5, 14.00000000000000000, #114 ) ;
#254 = DATE_AND_TIME ( #16, #18 ) ;
#255 = CYLINDRICAL_SURFACE ( 'NONE', #195, 3.100000000000000089 ) ;
ENDSEC;
END-ISO-10303-21;
