ISO-10303-21;
HEADER;
FILE_DESCRIPTION (( 'STEP AP203' ),
    '1' );
FILE_NAME ('bde7.STEP',
    '2023-02-13T13:33:49',
    ( '' ),
    ( '' ),
    'SwSTEP 2.0',
    'SolidWorks 2019',
    '' );
FILE_SCHEMA (( 'CONFIG_CONTROL_DESIGN' ));
ENDSEC;

DATA;
#1 = FACE_OUTER_BOUND ( 'NONE', #75, .T. ) ;
#2 = DATE_AND_TIME ( #250, #161 ) ;
#3 = CALENDAR_DATE ( 2023, 13, 2 ) ;
#4 = DATE_AND_TIME ( #3, #224 ) ;
#5 = FACE_BOUND ( 'NONE', #45, .T. ) ;
#6 = APPROVAL ( #176, 'NEURÈENÝ' ) ;
#7 = EDGE_LOOP ( 'NONE', ( #192, #243 ) ) ;
#8 = MANIFOLD_SOLID_BREP ( 'Pøidat vysunutím3', #220 ) ;
#9 = CC_DESIGN_PERSON_AND_ORGANIZATION_ASSIGNMENT ( #107, #140, ( #147 ) ) ;
#10 = ORIENTED_EDGE ( 'NONE', *, *, #239, .F. ) ;
#11 = DATE_AND_TIME ( #191, #236 ) ;
#12 = CC_DESIGN_APPROVAL ( #35, ( #147 ) ) ;
#13 = EDGE_CURVE ( 'NONE', #92, #99, #144, .T. ) ;
#14 = ORIENTED_EDGE ( 'NONE', *, *, #216, .T. ) ;
#15 = ORIENTED_EDGE ( 'NONE', *, *, #58, .T. ) ;
#16 = CARTESIAN_POINT ( 'NONE',  ( -7.000000000000000000, 0.000000000000000000, 5.000000000000000000 ) ) ;
#17 = DIRECTION ( 'NONE',  ( -0.000000000000000000, -0.000000000000000000, -1.000000000000000000 ) ) ;
#18 = CC_DESIGN_APPROVAL ( #6, ( #179 ) ) ;
#19 = DIRECTION ( 'NONE',  ( 0.000000000000000000, 0.000000000000000000, 1.000000000000000000 ) ) ;
#20 = PERSON_AND_ORGANIZATION ( #169, #185 ) ;
#21 = CYLINDRICAL_SURFACE ( 'NONE', #253, 7.000000000000000000 ) ;
#22 = DIRECTION ( 'NONE',  ( 0.000000000000000000, 0.000000000000000000, 1.000000000000000000 ) ) ;
#23 = PLANE ( 'NONE',  #94 ) ;
#24 = DATE_TIME_ROLE ( 'classification_date' ) ;
#25 = EDGE_CURVE ( 'NONE', #115, #47, #60, .T. ) ;
#26 = FACE_OUTER_BOUND ( 'NONE', #125, .T. ) ;
#27 = CC_DESIGN_DATE_AND_TIME_ASSIGNMENT ( #2, #102, ( #147 ) ) ;
#28 = VERTEX_POINT ( 'NONE', #180 ) ;
#29 = COORDINATED_UNIVERSAL_TIME_OFFSET ( 1, 0, .AHEAD. ) ;
#30 = CIRCLE ( 'NONE', #175, 4.000000000000000000 ) ;
#31 = VERTEX_POINT ( 'NONE', #217 ) ;
#32 = DESIGN_CONTEXT ( 'detailed design', #95, 'design' ) ;
#33 = VECTOR ( 'NONE', #57, 1000.000000000000000 ) ;
#34 = CARTESIAN_POINT ( 'NONE',  ( 0.000000000000000000, 0.000000000000000000, 100.0000000000000000 ) ) ;
#35 = APPROVAL ( #51, 'NEURÈENÝ' ) ;
#36 = CC_DESIGN_APPROVAL ( #242, ( #73 ) ) ;
#37 = DATE_AND_TIME ( #136, #240 ) ;
#38 = DIRECTION ( 'NONE',  ( 0.000000000000000000, 0.000000000000000000, 1.000000000000000000 ) ) ;
#39 = CC_DESIGN_DATE_AND_TIME_ASSIGNMENT ( #4, #24, ( #73 ) ) ;
#40 = ORIENTED_EDGE ( 'NONE', *, *, #50, .T. ) ;
#41 = DIRECTION ( 'NONE',  ( 1.000000000000000000, 0.000000000000000000, 0.000000000000000000 ) ) ;
#42 = LINE ( 'NONE', #186, #142 ) ;
#43 = APPROVAL_PERSON_ORGANIZATION ( #209, #35, #153 ) ;
#44 = ADVANCED_BREP_SHAPE_REPRESENTATION ( 'bde7', ( #8, #106 ), #118 ) ;
#45 = EDGE_LOOP ( 'NONE', ( #93, #152 ) ) ;
#46 = AXIS2_PLACEMENT_3D ( 'NONE', #34, #38, #117 ) ;
#47 = VERTEX_POINT ( 'NONE', #226 ) ;
#48 = EDGE_LOOP ( 'NONE', ( #10, #170 ) ) ;
#49 = AXIS2_PLACEMENT_3D ( 'NONE', #98, #116, #158 ) ;
#50 = EDGE_CURVE ( 'NONE', #115, #205, #204, .T. ) ;
#51 = APPROVAL_STATUS ( 'not_yet_approved' ) ;
#52 = DIRECTION ( 'NONE',  ( -1.000000000000000000, 0.000000000000000000, 0.000000000000000000 ) ) ;
#53 = DIRECTION ( 'NONE',  ( 0.000000000000000000, 0.000000000000000000, 1.000000000000000000 ) ) ;
#54 = PERSON_AND_ORGANIZATION ( #169, #185 ) ;
#55 = CARTESIAN_POINT ( 'NONE',  ( 0.000000000000000000, 0.000000000000000000, 100.0000000000000000 ) ) ;
#56 = PERSON_AND_ORGANIZATION_ROLE ( 'design_owner' ) ;
#57 = DIRECTION ( 'NONE',  ( -0.000000000000000000, -0.000000000000000000, -1.000000000000000000 ) ) ;
#58 = EDGE_CURVE ( 'NONE', #199, #31, #71, .T. ) ;
#59 = PERSON_AND_ORGANIZATION ( #169, #185 ) ;
#60 = LINE ( 'NONE', #16, #33 ) ;
#61 = DIRECTION ( 'NONE',  ( 1.000000000000000000, 0.000000000000000000, -0.000000000000000000 ) ) ;
#62 = VECTOR ( 'NONE', #17, 1000.000000000000000 ) ;
#63 = DIRECTION ( 'NONE',  ( 0.000000000000000000, 0.000000000000000000, 1.000000000000000000 ) ) ;
#64 = ADVANCED_FACE ( 'NONE', ( #1 ), #21, .T. ) ;
#65 = DIRECTION ( 'NONE',  ( 1.000000000000000000, 0.000000000000000000, -0.000000000000000000 ) ) ;
#66 = CIRCLE ( 'NONE', #166, 4.000000000000000000 ) ;
#67 = DIRECTION ( 'NONE',  ( -1.000000000000000000, 0.000000000000000000, 0.000000000000000000 ) ) ;
#68 = APPROVAL_PERSON_ORGANIZATION ( #215, #6, #231 ) ;
#69 = DIRECTION ( 'NONE',  ( -1.000000000000000000, 0.000000000000000000, 0.000000000000000000 ) ) ;
#70 = ORIENTED_EDGE ( 'NONE', *, *, #126, .F. ) ;
#71 = CIRCLE ( 'NONE', #113, 4.000000000000000000 ) ;
#72 =( NAMED_UNIT ( * ) SI_UNIT ( $, .STERADIAN. ) SOLID_ANGLE_UNIT ( ) );
#73 = SECURITY_CLASSIFICATION ( '', '', #212 ) ;
#74 = AXIS2_PLACEMENT_3D ( 'NONE', #145, #227, #133 ) ;
#75 = EDGE_LOOP ( 'NONE', ( #245, #157, #189, #167 ) ) ;
#76 = APPLICATION_PROTOCOL_DEFINITION ( 'international standard', 'config_control_design', 1994, #95 ) ;
#77 = EDGE_CURVE ( 'NONE', #205, #115, #146, .T. ) ;
#78 = DIRECTION ( 'NONE',  ( -0.000000000000000000, -0.000000000000000000, -1.000000000000000000 ) ) ;
#79 = PERSON_AND_ORGANIZATION_ROLE ( 'design_supplier' ) ;
#80 = LINE ( 'NONE', #156, #96 ) ;
#81 = AXIS2_PLACEMENT_3D ( 'NONE', #55, #19, #196 ) ;
#82 = EDGE_LOOP ( 'NONE', ( #206, #168, #244, #15 ) ) ;
#83 = DATE_AND_TIME ( #195, #124 ) ;
#84 = AXIS2_PLACEMENT_3D ( 'NONE', #222, #218, #65 ) ;
#85 = DIRECTION ( 'NONE',  ( 1.000000000000000000, 0.000000000000000000, 0.000000000000000000 ) ) ;
#86 = CARTESIAN_POINT ( 'NONE',  ( 0.000000000000000000, 0.000000000000000000, 0.000000000000000000 ) ) ;
#87 = CC_DESIGN_PERSON_AND_ORGANIZATION_ASSIGNMENT ( #247, #79, ( #179 ) ) ;
#88 = PERSON_AND_ORGANIZATION ( #169, #185 ) ;
#89 = CC_DESIGN_PERSON_AND_ORGANIZATION_ASSIGNMENT ( #59, #230, ( #179 ) ) ;
#90 = FACE_OUTER_BOUND ( 'NONE', #82, .T. ) ;
#91 = APPROVAL_STATUS ( 'not_yet_approved' ) ;
#92 = VERTEX_POINT ( 'NONE', #103 ) ;
#93 = ORIENTED_EDGE ( 'NONE', *, *, #58, .F. ) ;
#94 = AXIS2_PLACEMENT_3D ( 'NONE', #86, #63, #61 ) ;
#95 = APPLICATION_CONTEXT ( 'configuration controlled 3d designs of mechanical parts and assemblies' ) ;
#96 = VECTOR ( 'NONE', #252, 1000.000000000000000 ) ;
#97 = DIRECTION ( 'NONE',  ( -0.000000000000000000, -0.000000000000000000, -1.000000000000000000 ) ) ;
#98 = CARTESIAN_POINT ( 'NONE',  ( 0.000000000000000000, 0.000000000000000000, 0.000000000000000000 ) ) ;
#99 = VERTEX_POINT ( 'NONE', #132 ) ;
#100 = DIRECTION ( 'NONE',  ( 0.000000000000000000, 0.000000000000000000, 1.000000000000000000 ) ) ;
#101 = DIRECTION ( 'NONE',  ( 1.000000000000000000, 0.000000000000000000, 0.000000000000000000 ) ) ;
#102 = DATE_TIME_ROLE ( 'creation_date' ) ;
#103 = CARTESIAN_POINT ( 'NONE',  ( -4.000000000000000000, 0.000000000000000000, 100.0000000000000000 ) ) ;
#104 = ADVANCED_FACE ( 'NONE', ( #135 ), #211, .T. ) ;
#105 = CARTESIAN_POINT ( 'NONE',  ( 0.000000000000000000, 0.000000000000000000, 5.000000000000000000 ) ) ;
#106 = AXIS2_PLACEMENT_3D ( 'NONE', #221, #22, #41 ) ;
#107 = PERSON_AND_ORGANIZATION ( #169, #185 ) ;
#108 = APPLICATION_CONTEXT ( 'configuration controlled 3d designs of mechanical parts and assemblies' ) ;
#109 = APPROVAL_PERSON_ORGANIZATION ( #88, #242, #208 ) ;
#110 = DIRECTION ( 'NONE',  ( 1.000000000000000000, 0.000000000000000000, 0.000000000000000000 ) ) ;
#111 = CARTESIAN_POINT ( 'NONE',  ( 0.000000000000000000, 0.000000000000000000, 100.0000000000000000 ) ) ;
#112 =( NAMED_UNIT ( * ) PLANE_ANGLE_UNIT ( ) SI_UNIT ( $, .RADIAN. ) );
#113 = AXIS2_PLACEMENT_3D ( 'NONE', #200, #173, #85 ) ;
#114 = EDGE_LOOP ( 'NONE', ( #234, #223, #14, #177 ) ) ;
#115 = VERTEX_POINT ( 'NONE', #248 ) ;
#116 = DIRECTION ( 'NONE',  ( 0.000000000000000000, 0.000000000000000000, 1.000000000000000000 ) ) ;
#117 = DIRECTION ( 'NONE',  ( 1.000000000000000000, 0.000000000000000000, -0.000000000000000000 ) ) ;
#118 =( GEOMETRIC_REPRESENTATION_CONTEXT ( 3 ) GLOBAL_UNCERTAINTY_ASSIGNED_CONTEXT ( ( #160 ) ) GLOBAL_UNIT_ASSIGNED_CONTEXT ( ( #188, #112, #72 ) ) REPRESENTATION_CONTEXT ( 'NONE', 'WORKASPACE' ) );
#119 = DIRECTION ( 'NONE',  ( 0.000000000000000000, 0.000000000000000000, 1.000000000000000000 ) ) ;
#120 = PRODUCT_RELATED_PRODUCT_CATEGORY ( 'detail', '', ( #131 ) ) ;
#121 = EDGE_CURVE ( 'NONE', #205, #28, #80, .T. ) ;
#122 = CC_DESIGN_SECURITY_CLASSIFICATION ( #73, ( #179 ) ) ;
#123 = DIRECTION ( 'NONE',  ( -0.000000000000000000, -0.000000000000000000, -1.000000000000000000 ) ) ;
#124 = LOCAL_TIME ( 14, 33, 49.00000000000000000, #134 ) ;
#125 = EDGE_LOOP ( 'NONE', ( #40, #149 ) ) ;
#126 = EDGE_CURVE ( 'NONE', #99, #92, #30, .T. ) ;
#127 = AXIS2_PLACEMENT_3D ( 'NONE', #214, #100, #254 ) ;
#128 = PRODUCT_DEFINITION_SHAPE ( 'NONE', 'NONE',  #147 ) ;
#129 = AXIS2_PLACEMENT_3D ( 'NONE', #137, #171, #101 ) ;
#130 = EDGE_CURVE ( 'NONE', #31, #199, #66, .T. ) ;
#131 = PRODUCT ( 'bde7', 'bde7', '', ( #235 ) ) ;
#132 = CARTESIAN_POINT ( 'NONE',  ( 4.000000000000000000, 4.898587196589412829E-16, 100.0000000000000000 ) ) ;
#133 = DIRECTION ( 'NONE',  ( -1.000000000000000000, 0.000000000000000000, 0.000000000000000000 ) ) ;
#134 = COORDINATED_UNIVERSAL_TIME_OFFSET ( 1, 0, .AHEAD. ) ;
#135 = FACE_OUTER_BOUND ( 'NONE', #7, .T. ) ;
#136 = CALENDAR_DATE ( 2023, 13, 2 ) ;
#137 = CARTESIAN_POINT ( 'NONE',  ( 0.000000000000000000, 0.000000000000000000, 5.000000000000000000 ) ) ;
#138 = APPROVAL_DATE_TIME ( #83, #35 ) ;
#139 = CARTESIAN_POINT ( 'NONE',  ( 7.000000000000000000, 8.572527594031473190E-16, 5.000000000000000000 ) ) ;
#140 = PERSON_AND_ORGANIZATION_ROLE ( 'creator' ) ;
#141 = CARTESIAN_POINT ( 'NONE',  ( -4.000000000000000000, 0.000000000000000000, 5.000000000000000000 ) ) ;
#142 = VECTOR ( 'NONE', #123, 1000.000000000000000 ) ;
#143 = CYLINDRICAL_SURFACE ( 'NONE', #74, 4.000000000000000000 ) ;
#144 = CIRCLE ( 'NONE', #81, 4.000000000000000000 ) ;
#145 = CARTESIAN_POINT ( 'NONE',  ( 0.000000000000000000, 0.000000000000000000, 100.0000000000000000 ) ) ;
#146 = CIRCLE ( 'NONE', #203, 7.000000000000000000 ) ;
#147 = PRODUCT_DEFINITION ( 'NEZNÁMÝ', '', #179, #32 ) ;
#148 = PLANE ( 'NONE',  #84 ) ;
#149 = ORIENTED_EDGE ( 'NONE', *, *, #77, .T. ) ;
#150 = ADVANCED_FACE ( 'NONE', ( #182 ), #164, .T. ) ;
#151 = ORIENTED_EDGE ( 'NONE', *, *, #225, .F. ) ;
#152 = ORIENTED_EDGE ( 'NONE', *, *, #130, .F. ) ;
#153 = APPROVAL_ROLE ( '' ) ;
#154 = DIRECTION ( 'NONE',  ( 1.000000000000000000, 0.000000000000000000, 0.000000000000000000 ) ) ;
#155 = CC_DESIGN_PERSON_AND_ORGANIZATION_ASSIGNMENT ( #54, #159, ( #73 ) ) ;
#156 = CARTESIAN_POINT ( 'NONE',  ( 7.000000000000000000, 8.572527594031473190E-16, 5.000000000000000000 ) ) ;
#157 = ORIENTED_EDGE ( 'NONE', *, *, #50, .F. ) ;
#158 = DIRECTION ( 'NONE',  ( 1.000000000000000000, 0.000000000000000000, 0.000000000000000000 ) ) ;
#159 = PERSON_AND_ORGANIZATION_ROLE ( 'classification_officer' ) ;
#160 = UNCERTAINTY_MEASURE_WITH_UNIT (LENGTH_MEASURE( 1.000000000000000082E-05 ), #188, 'distance_accuracy_value', 'NONE');
#161 = LOCAL_TIME ( 14, 33, 49.00000000000000000, #181 ) ;
#162 = APPLICATION_PROTOCOL_DEFINITION ( 'international standard', 'config_control_design', 1994, #108 ) ;
#163 = COORDINATED_UNIVERSAL_TIME_OFFSET ( 1, 0, .AHEAD. ) ;
#164 = CYLINDRICAL_SURFACE ( 'NONE', #246, 7.000000000000000000 ) ;
#165 = ADVANCED_FACE ( 'NONE', ( #187 ), #23, .F. ) ;
#166 = AXIS2_PLACEMENT_3D ( 'NONE', #233, #219, #110 ) ;
#167 = ORIENTED_EDGE ( 'NONE', *, *, #239, .T. ) ;
#168 = ORIENTED_EDGE ( 'NONE', *, *, #13, .F. ) ;
#169 = PERSON ( 'NEURÈENÝ', 'NEURÈENÝ', 'NEURÈENÝ', ('NEURÈENÝ'), ('NEURÈENÝ'), ('NEURÈENÝ') ) ;
#170 = ORIENTED_EDGE ( 'NONE', *, *, #216, .F. ) ;
#171 = DIRECTION ( 'NONE',  ( 0.000000000000000000, 0.000000000000000000, 1.000000000000000000 ) ) ;
#172 = CIRCLE ( 'NONE', #49, 7.000000000000000000 ) ;
#173 = DIRECTION ( 'NONE',  ( 0.000000000000000000, 0.000000000000000000, 1.000000000000000000 ) ) ;
#174 = DIRECTION ( 'NONE',  ( 1.000000000000000000, 0.000000000000000000, 0.000000000000000000 ) ) ;
#175 = AXIS2_PLACEMENT_3D ( 'NONE', #232, #119, #174 ) ;
#176 = APPROVAL_STATUS ( 'not_yet_approved' ) ;
#177 = ORIENTED_EDGE ( 'NONE', *, *, #25, .F. ) ;
#178 = EDGE_CURVE ( 'NONE', #99, #31, #42, .T. ) ;
#179 = PRODUCT_DEFINITION_FORMATION_WITH_SPECIFIED_SOURCE ( 'LIBOVOLNÝ', '', #131, .NOT_KNOWN. ) ;
#180 = CARTESIAN_POINT ( 'NONE',  ( 7.000000000000000000, 8.572527594031473190E-16, 0.000000000000000000 ) ) ;
#181 = COORDINATED_UNIVERSAL_TIME_OFFSET ( 1, 0, .AHEAD. ) ;
#182 = FACE_OUTER_BOUND ( 'NONE', #114, .T. ) ;
#183 = COORDINATED_UNIVERSAL_TIME_OFFSET ( 1, 0, .AHEAD. ) ;
#184 = CC_DESIGN_PERSON_AND_ORGANIZATION_ASSIGNMENT ( #20, #56, ( #131 ) ) ;
#185 = ORGANIZATION ( 'NEURÈENÝ', 'NEURÈENÝ', '' ) ;
#186 = CARTESIAN_POINT ( 'NONE',  ( 4.000000000000000000, 4.898587196589412829E-16, 100.0000000000000000 ) ) ;
#187 = FACE_OUTER_BOUND ( 'NONE', #48, .T. ) ;
#188 =( LENGTH_UNIT ( ) NAMED_UNIT ( * ) SI_UNIT ( .MILLI., .METRE. ) );
#189 = ORIENTED_EDGE ( 'NONE', *, *, #25, .T. ) ;
#190 = CYLINDRICAL_SURFACE ( 'NONE', #198, 4.000000000000000000 ) ;
#191 = CALENDAR_DATE ( 2023, 13, 2 ) ;
#192 = ORIENTED_EDGE ( 'NONE', *, *, #13, .T. ) ;
#193 = EDGE_LOOP ( 'NONE', ( #70, #241, #228, #151 ) ) ;
#194 = CARTESIAN_POINT ( 'NONE',  ( -4.000000000000000000, 0.000000000000000000, 100.0000000000000000 ) ) ;
#195 = CALENDAR_DATE ( 2023, 13, 2 ) ;
#196 = DIRECTION ( 'NONE',  ( 1.000000000000000000, 0.000000000000000000, 0.000000000000000000 ) ) ;
#197 = SHAPE_DEFINITION_REPRESENTATION ( #128, #44 ) ;
#198 = AXIS2_PLACEMENT_3D ( 'NONE', #111, #97, #69 ) ;
#199 = VERTEX_POINT ( 'NONE', #141 ) ;
#200 = CARTESIAN_POINT ( 'NONE',  ( 0.000000000000000000, 0.000000000000000000, 5.000000000000000000 ) ) ;
#201 = FACE_OUTER_BOUND ( 'NONE', #193, .T. ) ;
#202 = ADVANCED_FACE ( 'NONE', ( #5, #26 ), #148, .T. ) ;
#203 = AXIS2_PLACEMENT_3D ( 'NONE', #213, #53, #154 ) ;
#204 = CIRCLE ( 'NONE', #129, 7.000000000000000000 ) ;
#205 = VERTEX_POINT ( 'NONE', #139 ) ;
#206 = ORIENTED_EDGE ( 'NONE', *, *, #178, .F. ) ;
#207 = CIRCLE ( 'NONE', #127, 7.000000000000000000 ) ;
#208 = APPROVAL_ROLE ( '' ) ;
#209 = PERSON_AND_ORGANIZATION ( #169, #185 ) ;
#210 = ADVANCED_FACE ( 'NONE', ( #201 ), #143, .T. ) ;
#211 = PLANE ( 'NONE',  #46 ) ;
#212 = SECURITY_CLASSIFICATION_LEVEL ( 'unclassified' ) ;
#213 = CARTESIAN_POINT ( 'NONE',  ( 0.000000000000000000, 0.000000000000000000, 5.000000000000000000 ) ) ;
#214 = CARTESIAN_POINT ( 'NONE',  ( 0.000000000000000000, 0.000000000000000000, 0.000000000000000000 ) ) ;
#215 = PERSON_AND_ORGANIZATION ( #169, #185 ) ;
#216 = EDGE_CURVE ( 'NONE', #28, #47, #172, .T. ) ;
#217 = CARTESIAN_POINT ( 'NONE',  ( 4.000000000000000000, 4.898587196589412829E-16, 5.000000000000000000 ) ) ;
#218 = DIRECTION ( 'NONE',  ( 0.000000000000000000, 0.000000000000000000, 1.000000000000000000 ) ) ;
#219 = DIRECTION ( 'NONE',  ( 0.000000000000000000, 0.000000000000000000, 1.000000000000000000 ) ) ;
#220 = CLOSED_SHELL ( 'NONE', ( #210, #150, #64, #202, #165, #251, #104 ) ) ;
#221 = CARTESIAN_POINT ( 'NONE',  ( 0.000000000000000000, 0.000000000000000000, 0.000000000000000000 ) ) ;
#222 = CARTESIAN_POINT ( 'NONE',  ( 0.000000000000000000, 0.000000000000000000, 5.000000000000000000 ) ) ;
#223 = ORIENTED_EDGE ( 'NONE', *, *, #121, .T. ) ;
#224 = LOCAL_TIME ( 14, 33, 49.00000000000000000, #183 ) ;
#225 = EDGE_CURVE ( 'NONE', #92, #199, #249, .T. ) ;
#226 = CARTESIAN_POINT ( 'NONE',  ( -7.000000000000000000, 0.000000000000000000, 0.000000000000000000 ) ) ;
#227 = DIRECTION ( 'NONE',  ( -0.000000000000000000, -0.000000000000000000, -1.000000000000000000 ) ) ;
#228 = ORIENTED_EDGE ( 'NONE', *, *, #130, .T. ) ;
#229 = APPROVAL_DATE_TIME ( #11, #242 ) ;
#230 = PERSON_AND_ORGANIZATION_ROLE ( 'creator' ) ;
#231 = APPROVAL_ROLE ( '' ) ;
#232 = CARTESIAN_POINT ( 'NONE',  ( 0.000000000000000000, 0.000000000000000000, 100.0000000000000000 ) ) ;
#233 = CARTESIAN_POINT ( 'NONE',  ( 0.000000000000000000, 0.000000000000000000, 5.000000000000000000 ) ) ;
#234 = ORIENTED_EDGE ( 'NONE', *, *, #77, .F. ) ;
#235 = MECHANICAL_CONTEXT ( 'NONE', #108, 'mechanical' ) ;
#236 = LOCAL_TIME ( 14, 33, 49.00000000000000000, #29 ) ;
#237 = DIRECTION ( 'NONE',  ( -0.000000000000000000, -0.000000000000000000, -1.000000000000000000 ) ) ;
#238 = CARTESIAN_POINT ( 'NONE',  ( 0.000000000000000000, 0.000000000000000000, 5.000000000000000000 ) ) ;
#239 = EDGE_CURVE ( 'NONE', #47, #28, #207, .T. ) ;
#240 = LOCAL_TIME ( 14, 33, 49.00000000000000000, #163 ) ;
#241 = ORIENTED_EDGE ( 'NONE', *, *, #178, .T. ) ;
#242 = APPROVAL ( #91, 'NEURÈENÝ' ) ;
#243 = ORIENTED_EDGE ( 'NONE', *, *, #126, .T. ) ;
#244 = ORIENTED_EDGE ( 'NONE', *, *, #225, .T. ) ;
#245 = ORIENTED_EDGE ( 'NONE', *, *, #121, .F. ) ;
#246 = AXIS2_PLACEMENT_3D ( 'NONE', #238, #237, #67 ) ;
#247 = PERSON_AND_ORGANIZATION ( #169, #185 ) ;
#248 = CARTESIAN_POINT ( 'NONE',  ( -7.000000000000000000, 0.000000000000000000, 5.000000000000000000 ) ) ;
#249 = LINE ( 'NONE', #194, #62 ) ;
#250 = CALENDAR_DATE ( 2023, 13, 2 ) ;
#251 = ADVANCED_FACE ( 'NONE', ( #90 ), #190, .T. ) ;
#252 = DIRECTION ( 'NONE',  ( -0.000000000000000000, -0.000000000000000000, -1.000000000000000000 ) ) ;
#253 = AXIS2_PLACEMENT_3D ( 'NONE', #105, #78, #52 ) ;
#254 = DIRECTION ( 'NONE',  ( 1.000000000000000000, 0.000000000000000000, 0.000000000000000000 ) ) ;
#255 = APPROVAL_DATE_TIME ( #37, #6 ) ;
ENDSEC;
END-ISO-10303-21;
