ISO-10303-21;
HEADER;
FILE_DESCRIPTION (( 'STEP AP203' ),
    '1' );
FILE_NAME ('35bb.STEP',
    '2023-02-13T14:34:34',
    ( '' ),
    ( '' ),
    'SwSTEP 2.0',
    'SolidWorks 2019',
    '' );
FILE_SCHEMA (( 'CONFIG_CONTROL_DESIGN' ));
ENDSEC;

DATA;
#1 = ORIENTED_EDGE ( 'NONE', *, *, #88, .T. ) ;
#2 = AXIS2_PLACEMENT_3D ( 'NONE', #174, #29, #33 ) ;
#3 = APPROVAL_STATUS ( 'not_yet_approved' ) ;
#4 = ADVANCED_FACE ( 'NONE', ( #59, #215 ), #115, .T. ) ;
#5 = EDGE_CURVE ( 'NONE', #15, #37, #156, .T. ) ;
#6 = CARTESIAN_POINT ( 'NONE',  ( 5.000000000000000000, 6.123233995736766282E-16, 3.000000000000000000 ) ) ;
#7 = CIRCLE ( 'NONE', #2, 2.750000000000000000 ) ;
#8 = PRODUCT_DEFINITION_SHAPE ( 'NONE', 'NONE',  #213 ) ;
#9 = AXIS2_PLACEMENT_3D ( 'NONE', #68, #151, #226 ) ;
#10 = AXIS2_PLACEMENT_3D ( 'NONE', #199, #140, #109 ) ;
#11 = CARTESIAN_POINT ( 'NONE',  ( 0.000000000000000000, 0.000000000000000000, 3.000000000000000000 ) ) ;
#12 = CARTESIAN_POINT ( 'NONE',  ( 0.000000000000000000, 0.000000000000000000, 100.0000000000000000 ) ) ;
#13 = LOCAL_TIME ( 15, 34, 34.00000000000000000, #94 ) ;
#14 = AXIS2_PLACEMENT_3D ( 'NONE', #101, #143, #45 ) ;
#15 = VERTEX_POINT ( 'NONE', #241 ) ;
#16 = MECHANICAL_CONTEXT ( 'NONE', #85, 'mechanical' ) ;
#17 = CYLINDRICAL_SURFACE ( 'NONE', #245, 2.750000000000000000 ) ;
#18 = DIRECTION ( 'NONE',  ( -1.000000000000000000, 0.000000000000000000, 0.000000000000000000 ) ) ;
#19 = LOCAL_TIME ( 15, 34, 34.00000000000000000, #118 ) ;
#20 = APPROVAL_DATE_TIME ( #178, #172 ) ;
#21 = PERSON_AND_ORGANIZATION_ROLE ( 'design_supplier' ) ;
#22 = MANIFOLD_SOLID_BREP ( 'Pøidat vysunutím3', #247 ) ;
#23 = CIRCLE ( 'NONE', #44, 2.750000000000000000 ) ;
#24 = CALENDAR_DATE ( 2023, 13, 2 ) ;
#25 = EDGE_LOOP ( 'NONE', ( #154, #219 ) ) ;
#26 = ADVANCED_FACE ( 'NONE', ( #83 ), #60, .F. ) ;
#27 = DIRECTION ( 'NONE',  ( 0.000000000000000000, 0.000000000000000000, 1.000000000000000000 ) ) ;
#28 = AXIS2_PLACEMENT_3D ( 'NONE', #209, #31, #255 ) ;
#29 = DIRECTION ( 'NONE',  ( 0.000000000000000000, 0.000000000000000000, 1.000000000000000000 ) ) ;
#30 = CARTESIAN_POINT ( 'NONE',  ( 2.750000000000000000, 3.367778697655220519E-16, 100.0000000000000000 ) ) ;
#31 = DIRECTION ( 'NONE',  ( 0.000000000000000000, 0.000000000000000000, 1.000000000000000000 ) ) ;
#32 = ORIENTED_EDGE ( 'NONE', *, *, #184, .T. ) ;
#33 = DIRECTION ( 'NONE',  ( 1.000000000000000000, 0.000000000000000000, 0.000000000000000000 ) ) ;
#34 = COORDINATED_UNIVERSAL_TIME_OFFSET ( 1, 0, .AHEAD. ) ;
#35 = DATE_TIME_ROLE ( 'creation_date' ) ;
#36 = PERSON_AND_ORGANIZATION ( #187, #149 ) ;
#37 = VERTEX_POINT ( 'NONE', #218 ) ;
#38 = ORIENTED_EDGE ( 'NONE', *, *, #98, .F. ) ;
#39 = AXIS2_PLACEMENT_3D ( 'NONE', #204, #27, #84 ) ;
#40 = SHAPE_DEFINITION_REPRESENTATION ( #8, #112 ) ;
#41 = ORIENTED_EDGE ( 'NONE', *, *, #148, .T. ) ;
#42 = CC_DESIGN_DATE_AND_TIME_ASSIGNMENT ( #111, #35, ( #213 ) ) ;
#43 = CALENDAR_DATE ( 2023, 13, 2 ) ;
#44 = AXIS2_PLACEMENT_3D ( 'NONE', #47, #126, #223 ) ;
#45 = DIRECTION ( 'NONE',  ( 1.000000000000000000, 0.000000000000000000, -0.000000000000000000 ) ) ;
#46 = DIRECTION ( 'NONE',  ( -0.000000000000000000, -0.000000000000000000, -1.000000000000000000 ) ) ;
#47 = CARTESIAN_POINT ( 'NONE',  ( 0.000000000000000000, 0.000000000000000000, 3.000000000000000000 ) ) ;
#48 = FACE_OUTER_BOUND ( 'NONE', #177, .T. ) ;
#49 = LINE ( 'NONE', #30, #137 ) ;
#50 = DIRECTION ( 'NONE',  ( 0.000000000000000000, 0.000000000000000000, 1.000000000000000000 ) ) ;
#51 = EDGE_LOOP ( 'NONE', ( #211, #138 ) ) ;
#52 = CC_DESIGN_PERSON_AND_ORGANIZATION_ASSIGNMENT ( #76, #166, ( #171 ) ) ;
#53 = APPLICATION_PROTOCOL_DEFINITION ( 'international standard', 'config_control_design', 1994, #129 ) ;
#54 = PERSON_AND_ORGANIZATION_ROLE ( 'creator' ) ;
#55 = CC_DESIGN_SECURITY_CLASSIFICATION ( #171, ( #93 ) ) ;
#56 = CIRCLE ( 'NONE', #170, 5.000000000000000000 ) ;
#57 = VERTEX_POINT ( 'NONE', #147 ) ;
#58 = EDGE_LOOP ( 'NONE', ( #61, #63 ) ) ;
#59 = FACE_BOUND ( 'NONE', #157, .T. ) ;
#60 = PLANE ( 'NONE',  #14 ) ;
#61 = ORIENTED_EDGE ( 'NONE', *, *, #5, .T. ) ;
#62 = APPROVAL_ROLE ( '' ) ;
#63 = ORIENTED_EDGE ( 'NONE', *, *, #98, .T. ) ;
#64 = DIRECTION ( 'NONE',  ( 0.000000000000000000, 0.000000000000000000, 1.000000000000000000 ) ) ;
#65 = DIRECTION ( 'NONE',  ( 1.000000000000000000, 0.000000000000000000, 0.000000000000000000 ) ) ;
#66 = LOCAL_TIME ( 15, 34, 34.00000000000000000, #182 ) ;
#67 = DIRECTION ( 'NONE',  ( 1.000000000000000000, 0.000000000000000000, -0.000000000000000000 ) ) ;
#68 = CARTESIAN_POINT ( 'NONE',  ( 0.000000000000000000, 0.000000000000000000, 0.000000000000000000 ) ) ;
#69 = ADVANCED_FACE ( 'NONE', ( #222 ), #103, .T. ) ;
#70 = DIRECTION ( 'NONE',  ( 0.000000000000000000, 0.000000000000000000, 1.000000000000000000 ) ) ;
#71 = EDGE_LOOP ( 'NONE', ( #237, #216, #1, #165 ) ) ;
#72 = CC_DESIGN_PERSON_AND_ORGANIZATION_ASSIGNMENT ( #180, #179, ( #93 ) ) ;
#73 = ORIENTED_EDGE ( 'NONE', *, *, #145, .F. ) ;
#74 = EDGE_LOOP ( 'NONE', ( #167, #176, #91, #228 ) ) ;
#75 =( GEOMETRIC_REPRESENTATION_CONTEXT ( 3 ) GLOBAL_UNCERTAINTY_ASSIGNED_CONTEXT ( ( #185 ) ) GLOBAL_UNIT_ASSIGNED_CONTEXT ( ( #254, #232, #197 ) ) REPRESENTATION_CONTEXT ( 'NONE', 'WORKASPACE' ) );
#76 = PERSON_AND_ORGANIZATION ( #187, #149 ) ;
#77 = DATE_TIME_ROLE ( 'classification_date' ) ;
#78 = EDGE_CURVE ( 'NONE', #238, #57, #99, .T. ) ;
#79 = ADVANCED_FACE ( 'NONE', ( #86 ), #173, .T. ) ;
#80 = APPROVAL_PERSON_ORGANIZATION ( #113, #172, #229 ) ;
#81 = ORIENTED_EDGE ( 'NONE', *, *, #88, .F. ) ;
#82 = DATE_AND_TIME ( #24, #19 ) ;
#83 = FACE_OUTER_BOUND ( 'NONE', #51, .T. ) ;
#84 = DIRECTION ( 'NONE',  ( 1.000000000000000000, 0.000000000000000000, 0.000000000000000000 ) ) ;
#85 = APPLICATION_CONTEXT ( 'configuration controlled 3d designs of mechanical parts and assemblies' ) ;
#86 = FACE_OUTER_BOUND ( 'NONE', #71, .T. ) ;
#87 = ADVANCED_FACE ( 'NONE', ( #153 ), #108, .T. ) ;
#88 = EDGE_CURVE ( 'NONE', #15, #159, #150, .T. ) ;
#89 = CARTESIAN_POINT ( 'NONE',  ( -5.000000000000000000, 0.000000000000000000, 3.000000000000000000 ) ) ;
#90 = CARTESIAN_POINT ( 'NONE',  ( 0.000000000000000000, 0.000000000000000000, 100.0000000000000000 ) ) ;
#91 = ORIENTED_EDGE ( 'NONE', *, *, #107, .T. ) ;
#92 = PERSON_AND_ORGANIZATION_ROLE ( 'design_owner' ) ;
#93 = PRODUCT_DEFINITION_FORMATION_WITH_SPECIFIED_SOURCE ( 'LIBOVOLNÝ', '', #120, .NOT_KNOWN. ) ;
#94 = COORDINATED_UNIVERSAL_TIME_OFFSET ( 1, 0, .AHEAD. ) ;
#95 = APPROVAL_DATE_TIME ( #195, #224 ) ;
#96 = COORDINATED_UNIVERSAL_TIME_OFFSET ( 1, 0, .AHEAD. ) ;
#97 = CC_DESIGN_APPROVAL ( #224, ( #93 ) ) ;
#98 = EDGE_CURVE ( 'NONE', #37, #15, #104, .T. ) ;
#99 = CIRCLE ( 'NONE', #39, 2.750000000000000000 ) ;
#100 = VERTEX_POINT ( 'NONE', #191 ) ;
#101 = CARTESIAN_POINT ( 'NONE',  ( 0.000000000000000000, 0.000000000000000000, 0.000000000000000000 ) ) ;
#102 = EDGE_CURVE ( 'NONE', #183, #122, #7, .T. ) ;
#103 = CYLINDRICAL_SURFACE ( 'NONE', #121, 2.750000000000000000 ) ;
#104 = CIRCLE ( 'NONE', #141, 5.000000000000000000 ) ;
#105 = DIRECTION ( 'NONE',  ( 1.000000000000000000, 0.000000000000000000, 0.000000000000000000 ) ) ;
#106 = CARTESIAN_POINT ( 'NONE',  ( -2.750000000000000000, 0.000000000000000000, 3.000000000000000000 ) ) ;
#107 = EDGE_CURVE ( 'NONE', #122, #183, #23, .T. ) ;
#108 = PLANE ( 'NONE',  #116 ) ;
#109 = DIRECTION ( 'NONE',  ( 1.000000000000000000, 0.000000000000000000, -0.000000000000000000 ) ) ;
#110 = DIRECTION ( 'NONE',  ( -1.000000000000000000, 0.000000000000000000, 0.000000000000000000 ) ) ;
#111 = DATE_AND_TIME ( #160, #246 ) ;
#112 = ADVANCED_BREP_SHAPE_REPRESENTATION ( '35bb', ( #22, #125 ), #75 ) ;
#113 = PERSON_AND_ORGANIZATION ( #187, #149 ) ;
#114 = EDGE_LOOP ( 'NONE', ( #144, #73, #41, #193 ) ) ;
#115 = PLANE ( 'NONE',  #10 ) ;
#116 = AXIS2_PLACEMENT_3D ( 'NONE', #12, #186, #67 ) ;
#117 = ORIENTED_EDGE ( 'NONE', *, *, #102, .F. ) ;
#118 = COORDINATED_UNIVERSAL_TIME_OFFSET ( 1, 0, .AHEAD. ) ;
#119 = CC_DESIGN_PERSON_AND_ORGANIZATION_ASSIGNMENT ( #231, #54, ( #213 ) ) ;
#120 = PRODUCT ( '35bb', '35bb', '', ( #16 ) ) ;
#121 = AXIS2_PLACEMENT_3D ( 'NONE', #201, #220, #124 ) ;
#122 = VERTEX_POINT ( 'NONE', #128 ) ;
#123 = DESIGN_CONTEXT ( 'detailed design', #129, 'design' ) ;
#124 = DIRECTION ( 'NONE',  ( -1.000000000000000000, 0.000000000000000000, 0.000000000000000000 ) ) ;
#125 = AXIS2_PLACEMENT_3D ( 'NONE', #133, #50, #158 ) ;
#126 = DIRECTION ( 'NONE',  ( 0.000000000000000000, 0.000000000000000000, 1.000000000000000000 ) ) ;
#127 = DIRECTION ( 'NONE',  ( -0.000000000000000000, -0.000000000000000000, -1.000000000000000000 ) ) ;
#128 = CARTESIAN_POINT ( 'NONE',  ( 2.750000000000000000, 3.367778697655220519E-16, 3.000000000000000000 ) ) ;
#129 = APPLICATION_CONTEXT ( 'configuration controlled 3d designs of mechanical parts and assemblies' ) ;
#130 = CYLINDRICAL_SURFACE ( 'NONE', #235, 5.000000000000000000 ) ;
#131 = VECTOR ( 'NONE', #212, 1000.000000000000000 ) ;
#132 = CARTESIAN_POINT ( 'NONE',  ( 0.000000000000000000, 0.000000000000000000, 3.000000000000000000 ) ) ;
#133 = CARTESIAN_POINT ( 'NONE',  ( 0.000000000000000000, 0.000000000000000000, 0.000000000000000000 ) ) ;
#134 = APPROVAL_ROLE ( '' ) ;
#135 = PERSON_AND_ORGANIZATION ( #187, #149 ) ;
#136 = CC_DESIGN_APPROVAL ( #172, ( #213 ) ) ;
#137 = VECTOR ( 'NONE', #46, 1000.000000000000000 ) ;
#138 = ORIENTED_EDGE ( 'NONE', *, *, #184, .F. ) ;
#139 = CC_DESIGN_PERSON_AND_ORGANIZATION_ASSIGNMENT ( #36, #92, ( #120 ) ) ;
#140 = DIRECTION ( 'NONE',  ( 0.000000000000000000, 0.000000000000000000, 1.000000000000000000 ) ) ;
#141 = AXIS2_PLACEMENT_3D ( 'NONE', #225, #70, #175 ) ;
#142 = AXIS2_PLACEMENT_3D ( 'NONE', #253, #64, #65 ) ;
#143 = DIRECTION ( 'NONE',  ( 0.000000000000000000, 0.000000000000000000, 1.000000000000000000 ) ) ;
#144 = ORIENTED_EDGE ( 'NONE', *, *, #169, .F. ) ;
#145 = EDGE_CURVE ( 'NONE', #57, #238, #168, .T. ) ;
#146 = DATE_AND_TIME ( #43, #66 ) ;
#147 = CARTESIAN_POINT ( 'NONE',  ( -2.750000000000000000, 0.000000000000000000, 100.0000000000000000 ) ) ;
#148 = EDGE_CURVE ( 'NONE', #57, #183, #207, .T. ) ;
#149 = ORGANIZATION ( 'NEURÈENÝ', 'NEURÈENÝ', '' ) ;
#150 = LINE ( 'NONE', #89, #131 ) ;
#151 = DIRECTION ( 'NONE',  ( 0.000000000000000000, 0.000000000000000000, 1.000000000000000000 ) ) ;
#152 = ORIENTED_EDGE ( 'NONE', *, *, #107, .F. ) ;
#153 = FACE_OUTER_BOUND ( 'NONE', #25, .T. ) ;
#154 = ORIENTED_EDGE ( 'NONE', *, *, #145, .T. ) ;
#155 = APPROVAL_STATUS ( 'not_yet_approved' ) ;
#156 = CIRCLE ( 'NONE', #142, 5.000000000000000000 ) ;
#157 = EDGE_LOOP ( 'NONE', ( #117, #152 ) ) ;
#158 = DIRECTION ( 'NONE',  ( 1.000000000000000000, 0.000000000000000000, 0.000000000000000000 ) ) ;
#159 = VERTEX_POINT ( 'NONE', #227 ) ;
#160 = CALENDAR_DATE ( 2023, 13, 2 ) ;
#161 = PRODUCT_RELATED_PRODUCT_CATEGORY ( 'detail', '', ( #120 ) ) ;
#162 = CALENDAR_DATE ( 2023, 13, 2 ) ;
#163 = LINE ( 'NONE', #6, #190 ) ;
#164 = CC_DESIGN_APPROVAL ( #200, ( #171 ) ) ;
#165 = ORIENTED_EDGE ( 'NONE', *, *, #221, .T. ) ;
#166 = PERSON_AND_ORGANIZATION_ROLE ( 'classification_officer' ) ;
#167 = ORIENTED_EDGE ( 'NONE', *, *, #78, .F. ) ;
#168 = CIRCLE ( 'NONE', #28, 2.750000000000000000 ) ;
#169 = EDGE_CURVE ( 'NONE', #238, #122, #49, .T. ) ;
#170 = AXIS2_PLACEMENT_3D ( 'NONE', #189, #252, #105 ) ;
#171 = SECURITY_CLASSIFICATION ( '', '', #181 ) ;
#172 = APPROVAL ( #155, 'NEURÈENÝ' ) ;
#173 = CYLINDRICAL_SURFACE ( 'NONE', #251, 5.000000000000000000 ) ;
#174 = CARTESIAN_POINT ( 'NONE',  ( 0.000000000000000000, 0.000000000000000000, 3.000000000000000000 ) ) ;
#175 = DIRECTION ( 'NONE',  ( 1.000000000000000000, 0.000000000000000000, 0.000000000000000000 ) ) ;
#176 = ORIENTED_EDGE ( 'NONE', *, *, #169, .T. ) ;
#177 = EDGE_LOOP ( 'NONE', ( #38, #242, #32, #81 ) ) ;
#178 = DATE_AND_TIME ( #162, #206 ) ;
#179 = PERSON_AND_ORGANIZATION_ROLE ( 'creator' ) ;
#180 = PERSON_AND_ORGANIZATION ( #187, #149 ) ;
#181 = SECURITY_CLASSIFICATION_LEVEL ( 'unclassified' ) ;
#182 = COORDINATED_UNIVERSAL_TIME_OFFSET ( 1, 0, .AHEAD. ) ;
#183 = VERTEX_POINT ( 'NONE', #106 ) ;
#184 = EDGE_CURVE ( 'NONE', #100, #159, #56, .T. ) ;
#185 = UNCERTAINTY_MEASURE_WITH_UNIT (LENGTH_MEASURE( 1.000000000000000082E-05 ), #254, 'distance_accuracy_value', 'NONE');
#186 = DIRECTION ( 'NONE',  ( 0.000000000000000000, 0.000000000000000000, 1.000000000000000000 ) ) ;
#187 = PERSON ( 'NEURÈENÝ', 'NEURÈENÝ', 'NEURÈENÝ', ('NEURÈENÝ'), ('NEURÈENÝ'), ('NEURÈENÝ') ) ;
#188 = CARTESIAN_POINT ( 'NONE',  ( -2.750000000000000000, 0.000000000000000000, 100.0000000000000000 ) ) ;
#189 = CARTESIAN_POINT ( 'NONE',  ( 0.000000000000000000, 0.000000000000000000, 0.000000000000000000 ) ) ;
#190 = VECTOR ( 'NONE', #127, 1000.000000000000000 ) ;
#191 = CARTESIAN_POINT ( 'NONE',  ( 5.000000000000000000, 6.123233995736766282E-16, 0.000000000000000000 ) ) ;
#192 = FACE_OUTER_BOUND ( 'NONE', #114, .T. ) ;
#193 = ORIENTED_EDGE ( 'NONE', *, *, #102, .T. ) ;
#194 = APPLICATION_PROTOCOL_DEFINITION ( 'international standard', 'config_control_design', 1994, #85 ) ;
#195 = DATE_AND_TIME ( #214, #13 ) ;
#196 = VECTOR ( 'NONE', #205, 1000.000000000000000 ) ;
#197 =( NAMED_UNIT ( * ) SI_UNIT ( $, .STERADIAN. ) SOLID_ANGLE_UNIT ( ) );
#198 = DIRECTION ( 'NONE',  ( -0.000000000000000000, -0.000000000000000000, -1.000000000000000000 ) ) ;
#199 = CARTESIAN_POINT ( 'NONE',  ( 0.000000000000000000, 0.000000000000000000, 3.000000000000000000 ) ) ;
#200 = APPROVAL ( #244, 'NEURÈENÝ' ) ;
#201 = CARTESIAN_POINT ( 'NONE',  ( 0.000000000000000000, 0.000000000000000000, 100.0000000000000000 ) ) ;
#202 = APPROVAL_PERSON_ORGANIZATION ( #135, #224, #134 ) ;
#203 = CIRCLE ( 'NONE', #9, 5.000000000000000000 ) ;
#204 = CARTESIAN_POINT ( 'NONE',  ( 0.000000000000000000, 0.000000000000000000, 100.0000000000000000 ) ) ;
#205 = DIRECTION ( 'NONE',  ( -0.000000000000000000, -0.000000000000000000, -1.000000000000000000 ) ) ;
#206 = LOCAL_TIME ( 15, 34, 34.00000000000000000, #34 ) ;
#207 = LINE ( 'NONE', #188, #196 ) ;
#208 = CARTESIAN_POINT ( 'NONE',  ( 2.750000000000000000, 3.367778697655220519E-16, 100.0000000000000000 ) ) ;
#209 = CARTESIAN_POINT ( 'NONE',  ( 0.000000000000000000, 0.000000000000000000, 100.0000000000000000 ) ) ;
#210 = DIRECTION ( 'NONE',  ( -0.000000000000000000, -0.000000000000000000, -1.000000000000000000 ) ) ;
#211 = ORIENTED_EDGE ( 'NONE', *, *, #221, .F. ) ;
#212 = DIRECTION ( 'NONE',  ( -0.000000000000000000, -0.000000000000000000, -1.000000000000000000 ) ) ;
#213 = PRODUCT_DEFINITION ( 'NEZNÁMÝ', '', #93, #123 ) ;
#214 = CALENDAR_DATE ( 2023, 13, 2 ) ;
#215 = FACE_OUTER_BOUND ( 'NONE', #58, .T. ) ;
#216 = ORIENTED_EDGE ( 'NONE', *, *, #5, .F. ) ;
#217 = APPROVAL_DATE_TIME ( #82, #200 ) ;
#218 = CARTESIAN_POINT ( 'NONE',  ( 5.000000000000000000, 6.123233995736766282E-16, 3.000000000000000000 ) ) ;
#219 = ORIENTED_EDGE ( 'NONE', *, *, #78, .T. ) ;
#220 = DIRECTION ( 'NONE',  ( -0.000000000000000000, -0.000000000000000000, -1.000000000000000000 ) ) ;
#221 = EDGE_CURVE ( 'NONE', #159, #100, #203, .T. ) ;
#222 = FACE_OUTER_BOUND ( 'NONE', #74, .T. ) ;
#223 = DIRECTION ( 'NONE',  ( 1.000000000000000000, 0.000000000000000000, 0.000000000000000000 ) ) ;
#224 = APPROVAL ( #3, 'NEURÈENÝ' ) ;
#225 = CARTESIAN_POINT ( 'NONE',  ( 0.000000000000000000, 0.000000000000000000, 3.000000000000000000 ) ) ;
#226 = DIRECTION ( 'NONE',  ( 1.000000000000000000, 0.000000000000000000, 0.000000000000000000 ) ) ;
#227 = CARTESIAN_POINT ( 'NONE',  ( -5.000000000000000000, 0.000000000000000000, 0.000000000000000000 ) ) ;
#228 = ORIENTED_EDGE ( 'NONE', *, *, #148, .F. ) ;
#229 = APPROVAL_ROLE ( '' ) ;
#230 = ADVANCED_FACE ( 'NONE', ( #48 ), #130, .T. ) ;
#231 = PERSON_AND_ORGANIZATION ( #187, #149 ) ;
#232 =( NAMED_UNIT ( * ) PLANE_ANGLE_UNIT ( ) SI_UNIT ( $, .RADIAN. ) );
#233 = ADVANCED_FACE ( 'NONE', ( #192 ), #17, .T. ) ;
#234 = PERSON_AND_ORGANIZATION ( #187, #149 ) ;
#235 = AXIS2_PLACEMENT_3D ( 'NONE', #132, #210, #110 ) ;
#236 = EDGE_CURVE ( 'NONE', #37, #100, #163, .T. ) ;
#237 = ORIENTED_EDGE ( 'NONE', *, *, #236, .F. ) ;
#238 = VERTEX_POINT ( 'NONE', #208 ) ;
#239 = CC_DESIGN_PERSON_AND_ORGANIZATION_ASSIGNMENT ( #234, #21, ( #93 ) ) ;
#240 = APPROVAL_PERSON_ORGANIZATION ( #243, #200, #62 ) ;
#241 = CARTESIAN_POINT ( 'NONE',  ( -5.000000000000000000, 0.000000000000000000, 3.000000000000000000 ) ) ;
#242 = ORIENTED_EDGE ( 'NONE', *, *, #236, .T. ) ;
#243 = PERSON_AND_ORGANIZATION ( #187, #149 ) ;
#244 = APPROVAL_STATUS ( 'not_yet_approved' ) ;
#245 = AXIS2_PLACEMENT_3D ( 'NONE', #90, #198, #18 ) ;
#246 = LOCAL_TIME ( 15, 34, 34.00000000000000000, #96 ) ;
#247 = CLOSED_SHELL ( 'NONE', ( #69, #230, #79, #4, #26, #233, #87 ) ) ;
#248 = DIRECTION ( 'NONE',  ( -0.000000000000000000, -0.000000000000000000, -1.000000000000000000 ) ) ;
#249 = DIRECTION ( 'NONE',  ( -1.000000000000000000, 0.000000000000000000, 0.000000000000000000 ) ) ;
#250 = CC_DESIGN_DATE_AND_TIME_ASSIGNMENT ( #146, #77, ( #171 ) ) ;
#251 = AXIS2_PLACEMENT_3D ( 'NONE', #11, #248, #249 ) ;
#252 = DIRECTION ( 'NONE',  ( 0.000000000000000000, 0.000000000000000000, 1.000000000000000000 ) ) ;
#253 = CARTESIAN_POINT ( 'NONE',  ( 0.000000000000000000, 0.000000000000000000, 3.000000000000000000 ) ) ;
#254 =( LENGTH_UNIT ( ) NAMED_UNIT ( * ) SI_UNIT ( .MILLI., .METRE. ) );
#255 = DIRECTION ( 'NONE',  ( 1.000000000000000000, 0.000000000000000000, 0.000000000000000000 ) ) ;
ENDSEC;
END-ISO-10303-21;
