ISO-10303-21;
HEADER;
FILE_DESCRIPTION (( 'STEP AP203' ),
    '1' );
FILE_NAME ('491a.STEP',
    '2023-02-13T11:13:51',
    ( '' ),
    ( '' ),
    'SwSTEP 2.0',
    'SolidWorks 2019',
    '' );
FILE_SCHEMA (( 'CONFIG_CONTROL_DESIGN' ));
ENDSEC;

DATA;
#1 = CC_DESIGN_PERSON_AND_ORGANIZATION_ASSIGNMENT ( #160, #243, ( #75 ) ) ;
#2 = CYLINDRICAL_SURFACE ( 'NONE', #9, 8.000000000000000000 ) ;
#3 = DIRECTION ( 'NONE',  ( 1.000000000000000000, 0.000000000000000000, 0.000000000000000000 ) ) ;
#4 = AXIS2_PLACEMENT_3D ( 'NONE', #104, #225, #120 ) ;
#5 = FACE_OUTER_BOUND ( 'NONE', #220, .T. ) ;
#6 = APPROVAL ( #137, 'NEURÈENÝ' ) ;
#7 = DIRECTION ( 'NONE',  ( 1.000000000000000000, 0.000000000000000000, 0.000000000000000000 ) ) ;
#8 = EDGE_LOOP ( 'NONE', ( #35, #29 ) ) ;
#9 = AXIS2_PLACEMENT_3D ( 'NONE', #217, #34, #194 ) ;
#10 = CARTESIAN_POINT ( 'NONE',  ( 0.000000000000000000, 0.000000000000000000, 5.000000000000000000 ) ) ;
#11 = CARTESIAN_POINT ( 'NONE',  ( 0.000000000000000000, 0.000000000000000000, 5.000000000000000000 ) ) ;
#12 = PERSON_AND_ORGANIZATION ( #112, #236 ) ;
#13 = DATE_TIME_ROLE ( 'classification_date' ) ;
#14 = CC_DESIGN_PERSON_AND_ORGANIZATION_ASSIGNMENT ( #167, #85, ( #109 ) ) ;
#15 = VERTEX_POINT ( 'NONE', #103 ) ;
#16 = EDGE_CURVE ( 'NONE', #79, #71, #238, .T. ) ;
#17 = CARTESIAN_POINT ( 'NONE',  ( 0.000000000000000000, 0.000000000000000000, 250.0000000000000000 ) ) ;
#18 = CYLINDRICAL_SURFACE ( 'NONE', #181, 5.100000000000001421 ) ;
#19 = APPROVAL_DATE_TIME ( #57, #202 ) ;
#20 = CARTESIAN_POINT ( 'NONE',  ( -8.000000000000000000, 0.000000000000000000, 0.000000000000000000 ) ) ;
#21 = EDGE_CURVE ( 'NONE', #204, #79, #157, .T. ) ;
#22 = DIRECTION ( 'NONE',  ( 0.000000000000000000, 0.000000000000000000, 1.000000000000000000 ) ) ;
#23 = PERSON_AND_ORGANIZATION_ROLE ( 'design_supplier' ) ;
#24 = CARTESIAN_POINT ( 'NONE',  ( 0.000000000000000000, 0.000000000000000000, 0.000000000000000000 ) ) ;
#25 = LOCAL_TIME ( 12, 13, 51.00000000000000000, #210 ) ;
#26 = CARTESIAN_POINT ( 'NONE',  ( -5.100000000000001421, 0.000000000000000000, 250.0000000000000000 ) ) ;
#27 = CC_DESIGN_PERSON_AND_ORGANIZATION_ASSIGNMENT ( #78, #203, ( #28 ) ) ;
#28 = PRODUCT ( '491a', '491a', '', ( #206 ) ) ;
#29 = ORIENTED_EDGE ( 'NONE', *, *, #90, .T. ) ;
#30 = EDGE_LOOP ( 'NONE', ( #83, #149 ) ) ;
#31 = LOCAL_TIME ( 12, 13, 51.00000000000000000, #55 ) ;
#32 = AXIS2_PLACEMENT_3D ( 'NONE', #24, #81, #159 ) ;
#33 = ADVANCED_FACE ( 'NONE', ( #5 ), #82, .T. ) ;
#34 = DIRECTION ( 'NONE',  ( -0.000000000000000000, -0.000000000000000000, -1.000000000000000000 ) ) ;
#35 = ORIENTED_EDGE ( 'NONE', *, *, #162, .T. ) ;
#36 = CARTESIAN_POINT ( 'NONE',  ( 0.000000000000000000, 0.000000000000000000, 250.0000000000000000 ) ) ;
#37 = CARTESIAN_POINT ( 'NONE',  ( -5.100000000000001421, 0.000000000000000000, 5.000000000000000000 ) ) ;
#38 = APPROVAL_DATE_TIME ( #80, #6 ) ;
#39 = FACE_BOUND ( 'NONE', #113, .T. ) ;
#40 = PERSON_AND_ORGANIZATION_ROLE ( 'creator' ) ;
#41 = AXIS2_PLACEMENT_3D ( 'NONE', #97, #237, #51 ) ;
#42 = LINE ( 'NONE', #107, #150 ) ;
#43 = PERSON_AND_ORGANIZATION ( #112, #236 ) ;
#44 = AXIS2_PLACEMENT_3D ( 'NONE', #36, #242, #246 ) ;
#45 = VERTEX_POINT ( 'NONE', #58 ) ;
#46 = VERTEX_POINT ( 'NONE', #20 ) ;
#47 = VECTOR ( 'NONE', #205, 1000.000000000000000 ) ;
#48 = ORIENTED_EDGE ( 'NONE', *, *, #199, .T. ) ;
#49 = LOCAL_TIME ( 12, 13, 51.00000000000000000, #60 ) ;
#50 = APPLICATION_PROTOCOL_DEFINITION ( 'international standard', 'config_control_design', 1994, #184 ) ;
#51 = DIRECTION ( 'NONE',  ( -1.000000000000000000, 0.000000000000000000, 0.000000000000000000 ) ) ;
#52 = CC_DESIGN_PERSON_AND_ORGANIZATION_ASSIGNMENT ( #12, #40, ( #177 ) ) ;
#53 = ORIENTED_EDGE ( 'NONE', *, *, #98, .F. ) ;
#54 = CC_DESIGN_APPROVAL ( #66, ( #109 ) ) ;
#55 = COORDINATED_UNIVERSAL_TIME_OFFSET ( 1, 0, .AHEAD. ) ;
#56 = DIRECTION ( 'NONE',  ( -0.000000000000000000, -0.000000000000000000, -1.000000000000000000 ) ) ;
#57 = DATE_AND_TIME ( #132, #31 ) ;
#58 = CARTESIAN_POINT ( 'NONE',  ( 8.000000000000000000, 9.797174393178825657E-16, 0.000000000000000000 ) ) ;
#59 = ORIENTED_EDGE ( 'NONE', *, *, #90, .F. ) ;
#60 = COORDINATED_UNIVERSAL_TIME_OFFSET ( 1, 0, .AHEAD. ) ;
#61 = CC_DESIGN_PERSON_AND_ORGANIZATION_ASSIGNMENT ( #116, #23, ( #177 ) ) ;
#62 = APPROVAL_PERSON_ORGANIZATION ( #153, #202, #156 ) ;
#63 = DIRECTION ( 'NONE',  ( 0.000000000000000000, 0.000000000000000000, 1.000000000000000000 ) ) ;
#64 = CALENDAR_DATE ( 2023, 13, 2 ) ;
#65 = ORIENTED_EDGE ( 'NONE', *, *, #16, .F. ) ;
#66 = APPROVAL ( #89, 'NEURÈENÝ' ) ;
#67 = CARTESIAN_POINT ( 'NONE',  ( 0.000000000000000000, 0.000000000000000000, 5.000000000000000000 ) ) ;
#68 = LOCAL_TIME ( 12, 13, 51.00000000000000000, #145 ) ;
#69 = VERTEX_POINT ( 'NONE', #155 ) ;
#70 = APPROVAL_PERSON_ORGANIZATION ( #158, #6, #165 ) ;
#71 = VERTEX_POINT ( 'NONE', #99 ) ;
#72 = PLANE ( 'NONE',  #218 ) ;
#73 = CARTESIAN_POINT ( 'NONE',  ( 0.000000000000000000, 0.000000000000000000, 0.000000000000000000 ) ) ;
#74 = AXIS2_PLACEMENT_3D ( 'NONE', #10, #22, #118 ) ;
#75 = PRODUCT_DEFINITION ( 'NEZNÁMÝ', '', #177, #142 ) ;
#76 = APPLICATION_PROTOCOL_DEFINITION ( 'international standard', 'config_control_design', 1994, #94 ) ;
#77 = CARTESIAN_POINT ( 'NONE',  ( 0.000000000000000000, 0.000000000000000000, 5.000000000000000000 ) ) ;
#78 = PERSON_AND_ORGANIZATION ( #112, #236 ) ;
#79 = VERTEX_POINT ( 'NONE', #37 ) ;
#80 = DATE_AND_TIME ( #189, #25 ) ;
#81 = DIRECTION ( 'NONE',  ( 0.000000000000000000, 0.000000000000000000, 1.000000000000000000 ) ) ;
#82 = CYLINDRICAL_SURFACE ( 'NONE', #44, 5.100000000000001421 ) ;
#83 = ORIENTED_EDGE ( 'NONE', *, *, #190, .F. ) ;
#84 = CARTESIAN_POINT ( 'NONE',  ( 0.000000000000000000, 0.000000000000000000, 250.0000000000000000 ) ) ;
#85 = PERSON_AND_ORGANIZATION_ROLE ( 'classification_officer' ) ;
#86 = AXIS2_PLACEMENT_3D ( 'NONE', #84, #176, #163 ) ;
#87 = PLANE ( 'NONE',  #222 ) ;
#88 = CC_DESIGN_APPROVAL ( #6, ( #177 ) ) ;
#89 = APPROVAL_STATUS ( 'not_yet_approved' ) ;
#90 = EDGE_CURVE ( 'NONE', #252, #204, #229, .T. ) ;
#91 = ORIENTED_EDGE ( 'NONE', *, *, #162, .F. ) ;
#92 = CC_DESIGN_APPROVAL ( #202, ( #75 ) ) ;
#93 = COORDINATED_UNIVERSAL_TIME_OFFSET ( 1, 0, .AHEAD. ) ;
#94 = APPLICATION_CONTEXT ( 'configuration controlled 3d designs of mechanical parts and assemblies' ) ;
#95 = FACE_OUTER_BOUND ( 'NONE', #168, .T. ) ;
#96 = AXIS2_PLACEMENT_3D ( 'NONE', #67, #227, #212 ) ;
#97 = CARTESIAN_POINT ( 'NONE',  ( 0.000000000000000000, 0.000000000000000000, 5.000000000000000000 ) ) ;
#98 = EDGE_CURVE ( 'NONE', #15, #46, #115, .T. ) ;
#99 = CARTESIAN_POINT ( 'NONE',  ( 5.100000000000001421, 6.245698675651502811E-16, 5.000000000000000000 ) ) ;
#100 = CARTESIAN_POINT ( 'NONE',  ( 0.000000000000000000, 0.000000000000000000, 250.0000000000000000 ) ) ;
#101 = CC_DESIGN_SECURITY_CLASSIFICATION ( #109, ( #177 ) ) ;
#102 = VECTOR ( 'NONE', #209, 1000.000000000000000 ) ;
#103 = CARTESIAN_POINT ( 'NONE',  ( -8.000000000000000000, 0.000000000000000000, 5.000000000000000000 ) ) ;
#104 = CARTESIAN_POINT ( 'NONE',  ( 0.000000000000000000, 0.000000000000000000, 250.0000000000000000 ) ) ;
#105 = FACE_OUTER_BOUND ( 'NONE', #235, .T. ) ;
#106 = AXIS2_PLACEMENT_3D ( 'NONE', #133, #161, #178 ) ;
#107 = CARTESIAN_POINT ( 'NONE',  ( 5.100000000000001421, 6.245698675651502811E-16, 250.0000000000000000 ) ) ;
#108 = EDGE_CURVE ( 'NONE', #15, #69, #144, .T. ) ;
#109 = SECURITY_CLASSIFICATION ( '', '', #119 ) ;
#110 = CALENDAR_DATE ( 2023, 13, 2 ) ;
#111 = EDGE_LOOP ( 'NONE', ( #59, #250, #169, #230 ) ) ;
#112 = PERSON ( 'NEURÈENÝ', 'NEURÈENÝ', 'NEURÈENÝ', ('NEURÈENÝ'), ('NEURÈENÝ'), ('NEURÈENÝ') ) ;
#113 = EDGE_LOOP ( 'NONE', ( #65, #122 ) ) ;
#114 = DIRECTION ( 'NONE',  ( 0.000000000000000000, 0.000000000000000000, 1.000000000000000000 ) ) ;
#115 = LINE ( 'NONE', #240, #241 ) ;
#116 = PERSON_AND_ORGANIZATION ( #112, #236 ) ;
#117 = CIRCLE ( 'NONE', #86, 5.100000000000001421 ) ;
#118 = DIRECTION ( 'NONE',  ( 1.000000000000000000, 0.000000000000000000, 0.000000000000000000 ) ) ;
#119 = SECURITY_CLASSIFICATION_LEVEL ( 'unclassified' ) ;
#120 = DIRECTION ( 'NONE',  ( 1.000000000000000000, 0.000000000000000000, 0.000000000000000000 ) ) ;
#121 = DATE_AND_TIME ( #110, #244 ) ;
#122 = ORIENTED_EDGE ( 'NONE', *, *, #221, .F. ) ;
#123 = CLOSED_SHELL ( 'NONE', ( #172, #228, #249, #198, #175, #33, #232 ) ) ;
#124 = CC_DESIGN_DATE_AND_TIME_ASSIGNMENT ( #214, #13, ( #109 ) ) ;
#125 = ORIENTED_EDGE ( 'NONE', *, *, #108, .F. ) ;
#126 = ORIENTED_EDGE ( 'NONE', *, *, #182, .T. ) ;
#127 = SHAPE_DEFINITION_REPRESENTATION ( #193, #226 ) ;
#128 = DIRECTION ( 'NONE',  ( 0.000000000000000000, 0.000000000000000000, 1.000000000000000000 ) ) ;
#129 = AXIS2_PLACEMENT_3D ( 'NONE', #245, #63, #224 ) ;
#130 = ORIENTED_EDGE ( 'NONE', *, *, #191, .T. ) ;
#131 =( LENGTH_UNIT ( ) NAMED_UNIT ( * ) SI_UNIT ( .MILLI., .METRE. ) );
#132 = CALENDAR_DATE ( 2023, 13, 2 ) ;
#133 = CARTESIAN_POINT ( 'NONE',  ( 0.000000000000000000, 0.000000000000000000, 0.000000000000000000 ) ) ;
#134 = DIRECTION ( 'NONE',  ( -1.000000000000000000, 0.000000000000000000, 0.000000000000000000 ) ) ;
#135 = LINE ( 'NONE', #223, #102 ) ;
#136 = DATE_TIME_ROLE ( 'creation_date' ) ;
#137 = APPROVAL_STATUS ( 'not_yet_approved' ) ;
#138 = CARTESIAN_POINT ( 'NONE',  ( -5.100000000000001421, 0.000000000000000000, 250.0000000000000000 ) ) ;
#139 = DATE_AND_TIME ( #64, #49 ) ;
#140 = DIRECTION ( 'NONE',  ( 1.000000000000000000, 0.000000000000000000, -0.000000000000000000 ) ) ;
#141 = CALENDAR_DATE ( 2023, 13, 2 ) ;
#142 = DESIGN_CONTEXT ( 'detailed design', #94, 'design' ) ;
#143 =( GEOMETRIC_REPRESENTATION_CONTEXT ( 3 ) GLOBAL_UNCERTAINTY_ASSIGNED_CONTEXT ( ( #164 ) ) GLOBAL_UNIT_ASSIGNED_CONTEXT ( ( #131, #179, #185 ) ) REPRESENTATION_CONTEXT ( 'NONE', 'WORKASPACE' ) );
#144 = CIRCLE ( 'NONE', #74, 8.000000000000000000 ) ;
#145 = COORDINATED_UNIVERSAL_TIME_OFFSET ( 1, 0, .AHEAD. ) ;
#146 = CC_DESIGN_DATE_AND_TIME_ASSIGNMENT ( #139, #136, ( #75 ) ) ;
#147 = ORIENTED_EDGE ( 'NONE', *, *, #182, .F. ) ;
#148 = AXIS2_PLACEMENT_3D ( 'NONE', #77, #114, #7 ) ;
#149 = ORIENTED_EDGE ( 'NONE', *, *, #191, .F. ) ;
#150 = VECTOR ( 'NONE', #188, 1000.000000000000000 ) ;
#151 = FACE_OUTER_BOUND ( 'NONE', #170, .T. ) ;
#152 = DIRECTION ( 'NONE',  ( 1.000000000000000000, 0.000000000000000000, -0.000000000000000000 ) ) ;
#153 = PERSON_AND_ORGANIZATION ( #112, #236 ) ;
#154 = CIRCLE ( 'NONE', #96, 8.000000000000000000 ) ;
#155 = CARTESIAN_POINT ( 'NONE',  ( 8.000000000000000000, 9.797174393178825657E-16, 5.000000000000000000 ) ) ;
#156 = APPROVAL_ROLE ( '' ) ;
#157 = LINE ( 'NONE', #138, #47 ) ;
#158 = PERSON_AND_ORGANIZATION ( #112, #236 ) ;
#159 = DIRECTION ( 'NONE',  ( 1.000000000000000000, 0.000000000000000000, -0.000000000000000000 ) ) ;
#160 = PERSON_AND_ORGANIZATION ( #112, #236 ) ;
#161 = DIRECTION ( 'NONE',  ( 0.000000000000000000, 0.000000000000000000, 1.000000000000000000 ) ) ;
#162 = EDGE_CURVE ( 'NONE', #204, #252, #117, .T. ) ;
#163 = DIRECTION ( 'NONE',  ( 1.000000000000000000, 0.000000000000000000, 0.000000000000000000 ) ) ;
#164 = UNCERTAINTY_MEASURE_WITH_UNIT (LENGTH_MEASURE( 1.000000000000000082E-05 ), #131, 'distance_accuracy_value', 'NONE');
#165 = APPROVAL_ROLE ( '' ) ;
#166 = CARTESIAN_POINT ( 'NONE',  ( 0.000000000000000000, 0.000000000000000000, 5.000000000000000000 ) ) ;
#167 = PERSON_AND_ORGANIZATION ( #112, #236 ) ;
#168 = EDGE_LOOP ( 'NONE', ( #211, #126, #130, #53 ) ) ;
#169 = ORIENTED_EDGE ( 'NONE', *, *, #221, .T. ) ;
#170 = EDGE_LOOP ( 'NONE', ( #147, #125, #216, #195 ) ) ;
#171 = APPROVAL_PERSON_ORGANIZATION ( #43, #66, #233 ) ;
#172 = ADVANCED_FACE ( 'NONE', ( #187 ), #18, .T. ) ;
#173 = FACE_OUTER_BOUND ( 'NONE', #8, .T. ) ;
#174 = DIRECTION ( 'NONE',  ( 0.000000000000000000, 0.000000000000000000, 1.000000000000000000 ) ) ;
#175 = ADVANCED_FACE ( 'NONE', ( #183 ), #180, .F. ) ;
#176 = DIRECTION ( 'NONE',  ( 0.000000000000000000, 0.000000000000000000, 1.000000000000000000 ) ) ;
#177 = PRODUCT_DEFINITION_FORMATION_WITH_SPECIFIED_SOURCE ( 'LIBOVOLNÝ', '', #28, .NOT_KNOWN. ) ;
#178 = DIRECTION ( 'NONE',  ( 1.000000000000000000, 0.000000000000000000, 0.000000000000000000 ) ) ;
#179 =( NAMED_UNIT ( * ) PLANE_ANGLE_UNIT ( ) SI_UNIT ( $, .RADIAN. ) );
#180 = PLANE ( 'NONE',  #32 ) ;
#181 = AXIS2_PLACEMENT_3D ( 'NONE', #100, #56, #134 ) ;
#182 = EDGE_CURVE ( 'NONE', #69, #45, #135, .T. ) ;
#183 = FACE_OUTER_BOUND ( 'NONE', #30, .T. ) ;
#184 = APPLICATION_CONTEXT ( 'configuration controlled 3d designs of mechanical parts and assemblies' ) ;
#185 =( NAMED_UNIT ( * ) SI_UNIT ( $, .STERADIAN. ) SOLID_ANGLE_UNIT ( ) );
#186 = AXIS2_PLACEMENT_3D ( 'NONE', #11, #254, #196 ) ;
#187 = FACE_OUTER_BOUND ( 'NONE', #111, .T. ) ;
#188 = DIRECTION ( 'NONE',  ( -0.000000000000000000, -0.000000000000000000, -1.000000000000000000 ) ) ;
#189 = CALENDAR_DATE ( 2023, 13, 2 ) ;
#190 = EDGE_CURVE ( 'NONE', #46, #45, #201, .T. ) ;
#191 = EDGE_CURVE ( 'NONE', #45, #46, #248, .T. ) ;
#192 = CIRCLE ( 'NONE', #186, 5.100000000000001421 ) ;
#193 = PRODUCT_DEFINITION_SHAPE ( 'NONE', 'NONE',  #75 ) ;
#194 = DIRECTION ( 'NONE',  ( -1.000000000000000000, 0.000000000000000000, 0.000000000000000000 ) ) ;
#195 = ORIENTED_EDGE ( 'NONE', *, *, #190, .T. ) ;
#196 = DIRECTION ( 'NONE',  ( 1.000000000000000000, 0.000000000000000000, 0.000000000000000000 ) ) ;
#197 = ORIENTED_EDGE ( 'NONE', *, *, #208, .F. ) ;
#198 = ADVANCED_FACE ( 'NONE', ( #39, #105 ), #87, .T. ) ;
#199 = EDGE_CURVE ( 'NONE', #69, #15, #154, .T. ) ;
#200 = CYLINDRICAL_SURFACE ( 'NONE', #41, 8.000000000000000000 ) ;
#201 = CIRCLE ( 'NONE', #106, 8.000000000000000000 ) ;
#202 = APPROVAL ( #239, 'NEURÈENÝ' ) ;
#203 = PERSON_AND_ORGANIZATION_ROLE ( 'design_owner' ) ;
#204 = VERTEX_POINT ( 'NONE', #26 ) ;
#205 = DIRECTION ( 'NONE',  ( -0.000000000000000000, -0.000000000000000000, -1.000000000000000000 ) ) ;
#206 = MECHANICAL_CONTEXT ( 'NONE', #184, 'mechanical' ) ;
#207 = DIRECTION ( 'NONE',  ( -0.000000000000000000, -0.000000000000000000, -1.000000000000000000 ) ) ;
#208 = EDGE_CURVE ( 'NONE', #252, #71, #42, .T. ) ;
#209 = DIRECTION ( 'NONE',  ( -0.000000000000000000, -0.000000000000000000, -1.000000000000000000 ) ) ;
#210 = COORDINATED_UNIVERSAL_TIME_OFFSET ( 1, 0, .AHEAD. ) ;
#211 = ORIENTED_EDGE ( 'NONE', *, *, #199, .F. ) ;
#212 = DIRECTION ( 'NONE',  ( 1.000000000000000000, 0.000000000000000000, 0.000000000000000000 ) ) ;
#213 = APPROVAL_DATE_TIME ( #121, #66 ) ;
#214 = DATE_AND_TIME ( #141, #68 ) ;
#215 = ORIENTED_EDGE ( 'NONE', *, *, #108, .T. ) ;
#216 = ORIENTED_EDGE ( 'NONE', *, *, #98, .T. ) ;
#217 = CARTESIAN_POINT ( 'NONE',  ( 0.000000000000000000, 0.000000000000000000, 5.000000000000000000 ) ) ;
#218 = AXIS2_PLACEMENT_3D ( 'NONE', #17, #128, #152 ) ;
#219 = ORIENTED_EDGE ( 'NONE', *, *, #16, .T. ) ;
#220 = EDGE_LOOP ( 'NONE', ( #197, #91, #231, #219 ) ) ;
#221 = EDGE_CURVE ( 'NONE', #71, #79, #192, .T. ) ;
#222 = AXIS2_PLACEMENT_3D ( 'NONE', #166, #247, #140 ) ;
#223 = CARTESIAN_POINT ( 'NONE',  ( 8.000000000000000000, 9.797174393178825657E-16, 5.000000000000000000 ) ) ;
#224 = DIRECTION ( 'NONE',  ( 1.000000000000000000, 0.000000000000000000, 0.000000000000000000 ) ) ;
#225 = DIRECTION ( 'NONE',  ( 0.000000000000000000, 0.000000000000000000, 1.000000000000000000 ) ) ;
#226 = ADVANCED_BREP_SHAPE_REPRESENTATION ( '491a', ( #255, #251 ), #143 ) ;
#227 = DIRECTION ( 'NONE',  ( 0.000000000000000000, 0.000000000000000000, 1.000000000000000000 ) ) ;
#228 = ADVANCED_FACE ( 'NONE', ( #95 ), #200, .T. ) ;
#229 = CIRCLE ( 'NONE', #4, 5.100000000000001421 ) ;
#230 = ORIENTED_EDGE ( 'NONE', *, *, #21, .F. ) ;
#231 = ORIENTED_EDGE ( 'NONE', *, *, #21, .T. ) ;
#232 = ADVANCED_FACE ( 'NONE', ( #173 ), #72, .T. ) ;
#233 = APPROVAL_ROLE ( '' ) ;
#234 = CARTESIAN_POINT ( 'NONE',  ( 5.100000000000001421, 6.245698675651502811E-16, 250.0000000000000000 ) ) ;
#235 = EDGE_LOOP ( 'NONE', ( #215, #48 ) ) ;
#236 = ORGANIZATION ( 'NEURÈENÝ', 'NEURÈENÝ', '' ) ;
#237 = DIRECTION ( 'NONE',  ( -0.000000000000000000, -0.000000000000000000, -1.000000000000000000 ) ) ;
#238 = CIRCLE ( 'NONE', #148, 5.100000000000001421 ) ;
#239 = APPROVAL_STATUS ( 'not_yet_approved' ) ;
#240 = CARTESIAN_POINT ( 'NONE',  ( -8.000000000000000000, 0.000000000000000000, 5.000000000000000000 ) ) ;
#241 = VECTOR ( 'NONE', #207, 1000.000000000000000 ) ;
#242 = DIRECTION ( 'NONE',  ( -0.000000000000000000, -0.000000000000000000, -1.000000000000000000 ) ) ;
#243 = PERSON_AND_ORGANIZATION_ROLE ( 'creator' ) ;
#244 = LOCAL_TIME ( 12, 13, 51.00000000000000000, #93 ) ;
#245 = CARTESIAN_POINT ( 'NONE',  ( 0.000000000000000000, 0.000000000000000000, 0.000000000000000000 ) ) ;
#246 = DIRECTION ( 'NONE',  ( -1.000000000000000000, 0.000000000000000000, 0.000000000000000000 ) ) ;
#247 = DIRECTION ( 'NONE',  ( 0.000000000000000000, 0.000000000000000000, 1.000000000000000000 ) ) ;
#248 = CIRCLE ( 'NONE', #129, 8.000000000000000000 ) ;
#249 = ADVANCED_FACE ( 'NONE', ( #151 ), #2, .T. ) ;
#250 = ORIENTED_EDGE ( 'NONE', *, *, #208, .T. ) ;
#251 = AXIS2_PLACEMENT_3D ( 'NONE', #73, #174, #3 ) ;
#252 = VERTEX_POINT ( 'NONE', #234 ) ;
#253 = PRODUCT_RELATED_PRODUCT_CATEGORY ( 'detail', '', ( #28 ) ) ;
#254 = DIRECTION ( 'NONE',  ( 0.000000000000000000, 0.000000000000000000, 1.000000000000000000 ) ) ;
#255 = MANIFOLD_SOLID_BREP ( 'Pøidat vysunutím3', #123 ) ;
ENDSEC;
END-ISO-10303-21;
