ISO-10303-21;
HEADER;
FILE_DESCRIPTION (( 'STEP AP203' ),
    '1' );
FILE_NAME ('8844.STEP',
    '2023-02-13T13:37:16',
    ( '' ),
    ( '' ),
    'SwSTEP 2.0',
    'SolidWorks 2019',
    '' );
FILE_SCHEMA (( 'CONFIG_CONTROL_DESIGN' ));
ENDSEC;

DATA;
#1 = APPROVAL_ROLE ( '' ) ;
#2 = AXIS2_PLACEMENT_3D ( 'NONE', #253, #177, #82 ) ;
#3 = DIRECTION ( 'NONE',  ( -0.000000000000000000, -0.000000000000000000, -1.000000000000000000 ) ) ;
#4 = DIRECTION ( 'NONE',  ( 0.000000000000000000, 0.000000000000000000, 1.000000000000000000 ) ) ;
#5 = LINE ( 'NONE', #105, #102 ) ;
#6 = SECURITY_CLASSIFICATION_LEVEL ( 'unclassified' ) ;
#7 = CARTESIAN_POINT ( 'NONE',  ( -3.250000000000000444, 0.000000000000000000, 5.000000000000000000 ) ) ;
#8 = APPROVAL ( #220, 'NEURÈENÝ' ) ;
#9 = CARTESIAN_POINT ( 'NONE',  ( 6.000000000000000888, 7.347880794884120722E-16, 0.000000000000000000 ) ) ;
#10 = EDGE_LOOP ( 'NONE', ( #193, #97 ) ) ;
#11 = CC_DESIGN_APPROVAL ( #52, ( #38 ) ) ;
#12 = CARTESIAN_POINT ( 'NONE',  ( 0.000000000000000000, 0.000000000000000000, 5.000000000000000000 ) ) ;
#13 = ORIENTED_EDGE ( 'NONE', *, *, #148, .F. ) ;
#14 = EDGE_CURVE ( 'NONE', #155, #114, #159, .T. ) ;
#15 = AXIS2_PLACEMENT_3D ( 'NONE', #12, #75, #156 ) ;
#16 = PLANE ( 'NONE',  #2 ) ;
#17 = FACE_OUTER_BOUND ( 'NONE', #183, .T. ) ;
#18 = SHAPE_DEFINITION_REPRESENTATION ( #45, #196 ) ;
#19 = AXIS2_PLACEMENT_3D ( 'NONE', #92, #244, #203 ) ;
#20 = MECHANICAL_CONTEXT ( 'NONE', #40, 'mechanical' ) ;
#21 = EDGE_CURVE ( 'NONE', #137, #95, #5, .T. ) ;
#22 = APPLICATION_CONTEXT ( 'configuration controlled 3d designs of mechanical parts and assemblies' ) ;
#23 = DIRECTION ( 'NONE',  ( 1.000000000000000000, 0.000000000000000000, 0.000000000000000000 ) ) ;
#24 = DATE_AND_TIME ( #67, #158 ) ;
#25 = FACE_OUTER_BOUND ( 'NONE', #231, .T. ) ;
#26 = ORIENTED_EDGE ( 'NONE', *, *, #190, .F. ) ;
#27 = PERSON_AND_ORGANIZATION ( #134, #194 ) ;
#28 = DIRECTION ( 'NONE',  ( -1.000000000000000000, 0.000000000000000000, 0.000000000000000000 ) ) ;
#29 = ADVANCED_FACE ( 'NONE', ( #221 ), #243, .F. ) ;
#30 = ORIENTED_EDGE ( 'NONE', *, *, #120, .T. ) ;
#31 = CIRCLE ( 'NONE', #83, 3.250000000000000444 ) ;
#32 = DIRECTION ( 'NONE',  ( -1.000000000000000000, 0.000000000000000000, 0.000000000000000000 ) ) ;
#33 = ORIENTED_EDGE ( 'NONE', *, *, #116, .T. ) ;
#34 = CYLINDRICAL_SURFACE ( 'NONE', #117, 6.000000000000000888 ) ;
#35 = ORIENTED_EDGE ( 'NONE', *, *, #65, .T. ) ;
#36 = LOCAL_TIME ( 14, 37, 16.00000000000000000, #150 ) ;
#37 = PRODUCT_RELATED_PRODUCT_CATEGORY ( 'detail', '', ( #162 ) ) ;
#38 = PRODUCT_DEFINITION_FORMATION_WITH_SPECIFIED_SOURCE ( 'LIBOVOLNÝ', '', #162, .NOT_KNOWN. ) ;
#39 = EDGE_CURVE ( 'NONE', #114, #132, #87, .T. ) ;
#40 = APPLICATION_CONTEXT ( 'configuration controlled 3d designs of mechanical parts and assemblies' ) ;
#41 = APPLICATION_PROTOCOL_DEFINITION ( 'international standard', 'config_control_design', 1994, #40 ) ;
#42 = DATE_TIME_ROLE ( 'creation_date' ) ;
#43 = PERSON_AND_ORGANIZATION_ROLE ( 'classification_officer' ) ;
#44 = EDGE_CURVE ( 'NONE', #112, #95, #31, .T. ) ;
#45 = PRODUCT_DEFINITION_SHAPE ( 'NONE', 'NONE',  #58 ) ;
#46 = DATE_TIME_ROLE ( 'classification_date' ) ;
#47 = CARTESIAN_POINT ( 'NONE',  ( 0.000000000000000000, 0.000000000000000000, 5.000000000000000000 ) ) ;
#48 = COORDINATED_UNIVERSAL_TIME_OFFSET ( 1, 0, .AHEAD. ) ;
#49 = CARTESIAN_POINT ( 'NONE',  ( 0.000000000000000000, 0.000000000000000000, 5.000000000000000000 ) ) ;
#50 = EDGE_CURVE ( 'NONE', #139, #112, #165, .T. ) ;
#51 = DIRECTION ( 'NONE',  ( 0.000000000000000000, 0.000000000000000000, 1.000000000000000000 ) ) ;
#52 = APPROVAL ( #179, 'NEURÈENÝ' ) ;
#53 = DIRECTION ( 'NONE',  ( -0.000000000000000000, -0.000000000000000000, -1.000000000000000000 ) ) ;
#54 = CARTESIAN_POINT ( 'NONE',  ( 0.000000000000000000, 0.000000000000000000, 0.000000000000000000 ) ) ;
#55 = ORIENTED_EDGE ( 'NONE', *, *, #252, .F. ) ;
#56 = CARTESIAN_POINT ( 'NONE',  ( 0.000000000000000000, 0.000000000000000000, 315.0000000000000000 ) ) ;
#57 = ORIENTED_EDGE ( 'NONE', *, *, #44, .F. ) ;
#58 = PRODUCT_DEFINITION ( 'NEZNÁMÝ', '', #38, #141 ) ;
#59 = MANIFOLD_SOLID_BREP ( 'Pøidat vysunutím3', #182 ) ;
#60 = APPROVAL_PERSON_ORGANIZATION ( #106, #52, #86 ) ;
#61 = DIRECTION ( 'NONE',  ( 1.000000000000000000, 0.000000000000000000, 0.000000000000000000 ) ) ;
#62 = CARTESIAN_POINT ( 'NONE',  ( 0.000000000000000000, 0.000000000000000000, 0.000000000000000000 ) ) ;
#63 = CALENDAR_DATE ( 2023, 13, 2 ) ;
#64 = APPROVAL_DATE_TIME ( #235, #84 ) ;
#65 = EDGE_CURVE ( 'NONE', #228, #132, #224, .T. ) ;
#66 = CIRCLE ( 'NONE', #207, 6.000000000000000888 ) ;
#67 = CALENDAR_DATE ( 2023, 13, 2 ) ;
#68 = PERSON_AND_ORGANIZATION_ROLE ( 'creator' ) ;
#69 = DIRECTION ( 'NONE',  ( -0.000000000000000000, -0.000000000000000000, -1.000000000000000000 ) ) ;
#70 = COORDINATED_UNIVERSAL_TIME_OFFSET ( 1, 0, .AHEAD. ) ;
#71 = FACE_OUTER_BOUND ( 'NONE', #149, .T. ) ;
#72 = CARTESIAN_POINT ( 'NONE',  ( -6.000000000000000888, 0.000000000000000000, 5.000000000000000000 ) ) ;
#73 = DIRECTION ( 'NONE',  ( -0.000000000000000000, -0.000000000000000000, -1.000000000000000000 ) ) ;
#74 = ORIENTED_EDGE ( 'NONE', *, *, #44, .T. ) ;
#75 = DIRECTION ( 'NONE',  ( 0.000000000000000000, 0.000000000000000000, 1.000000000000000000 ) ) ;
#76 = ORIENTED_EDGE ( 'NONE', *, *, #148, .T. ) ;
#77 = ADVANCED_FACE ( 'NONE', ( #71 ), #151, .T. ) ;
#78 = FACE_OUTER_BOUND ( 'NONE', #108, .T. ) ;
#79 = EDGE_LOOP ( 'NONE', ( #13, #191 ) ) ;
#80 = CC_DESIGN_PERSON_AND_ORGANIZATION_ASSIGNMENT ( #205, #104, ( #162 ) ) ;
#81 =( NAMED_UNIT ( * ) SI_UNIT ( $, .STERADIAN. ) SOLID_ANGLE_UNIT ( ) );
#82 = DIRECTION ( 'NONE',  ( 1.000000000000000000, 0.000000000000000000, -0.000000000000000000 ) ) ;
#83 = AXIS2_PLACEMENT_3D ( 'NONE', #123, #201, #23 ) ;
#84 = APPROVAL ( #91, 'NEURÈENÝ' ) ;
#85 = APPROVAL_PERSON_ORGANIZATION ( #200, #84, #181 ) ;
#86 = APPROVAL_ROLE ( '' ) ;
#87 = LINE ( 'NONE', #72, #195 ) ;
#88 = CARTESIAN_POINT ( 'NONE',  ( 3.250000000000000444, 3.980102097228898231E-16, 315.0000000000000000 ) ) ;
#89 = EDGE_CURVE ( 'NONE', #114, #155, #66, .T. ) ;
#90 = CARTESIAN_POINT ( 'NONE',  ( 0.000000000000000000, 0.000000000000000000, 0.000000000000000000 ) ) ;
#91 = APPROVAL_STATUS ( 'not_yet_approved' ) ;
#92 = CARTESIAN_POINT ( 'NONE',  ( 0.000000000000000000, 0.000000000000000000, 315.0000000000000000 ) ) ;
#93 = VECTOR ( 'NONE', #53, 1000.000000000000000 ) ;
#94 = CARTESIAN_POINT ( 'NONE',  ( -3.250000000000000444, 0.000000000000000000, 315.0000000000000000 ) ) ;
#95 = VERTEX_POINT ( 'NONE', #166 ) ;
#96 = DIRECTION ( 'NONE',  ( 1.000000000000000000, 0.000000000000000000, 0.000000000000000000 ) ) ;
#97 = ORIENTED_EDGE ( 'NONE', *, *, #14, .T. ) ;
#98 = DIRECTION ( 'NONE',  ( -1.000000000000000000, 0.000000000000000000, 0.000000000000000000 ) ) ;
#99 = ORIENTED_EDGE ( 'NONE', *, *, #21, .F. ) ;
#100 = CC_DESIGN_PERSON_AND_ORGANIZATION_ASSIGNMENT ( #186, #68, ( #58 ) ) ;
#101 =( LENGTH_UNIT ( ) NAMED_UNIT ( * ) SI_UNIT ( .MILLI., .METRE. ) );
#102 = VECTOR ( 'NONE', #3, 1000.000000000000000 ) ;
#103 = CC_DESIGN_DATE_AND_TIME_ASSIGNMENT ( #143, #42, ( #58 ) ) ;
#104 = PERSON_AND_ORGANIZATION_ROLE ( 'design_owner' ) ;
#105 = CARTESIAN_POINT ( 'NONE',  ( 3.250000000000000444, 3.980102097228898231E-16, 315.0000000000000000 ) ) ;
#106 = PERSON_AND_ORGANIZATION ( #134, #194 ) ;
#107 = CARTESIAN_POINT ( 'NONE',  ( -6.000000000000000888, 0.000000000000000000, 0.000000000000000000 ) ) ;
#108 = EDGE_LOOP ( 'NONE', ( #99, #55, #174, #74 ) ) ;
#109 = CYLINDRICAL_SURFACE ( 'NONE', #214, 3.250000000000000444 ) ;
#110 = CIRCLE ( 'NONE', #251, 3.250000000000000444 ) ;
#111 = CARTESIAN_POINT ( 'NONE',  ( 0.000000000000000000, 0.000000000000000000, 5.000000000000000000 ) ) ;
#112 = VERTEX_POINT ( 'NONE', #7 ) ;
#113 = DIRECTION ( 'NONE',  ( 0.000000000000000000, 0.000000000000000000, 1.000000000000000000 ) ) ;
#114 = VERTEX_POINT ( 'NONE', #206 ) ;
#115 = CIRCLE ( 'NONE', #19, 3.250000000000000444 ) ;
#116 = EDGE_CURVE ( 'NONE', #137, #139, #115, .T. ) ;
#117 = AXIS2_PLACEMENT_3D ( 'NONE', #154, #135, #32 ) ;
#118 = DIRECTION ( 'NONE',  ( 1.000000000000000000, 0.000000000000000000, 0.000000000000000000 ) ) ;
#119 = ADVANCED_FACE ( 'NONE', ( #25 ), #109, .T. ) ;
#120 = EDGE_CURVE ( 'NONE', #155, #228, #226, .T. ) ;
#121 = APPROVAL_DATE_TIME ( #219, #52 ) ;
#122 = CIRCLE ( 'NONE', #15, 3.250000000000000444 ) ;
#123 = CARTESIAN_POINT ( 'NONE',  ( 0.000000000000000000, 0.000000000000000000, 5.000000000000000000 ) ) ;
#124 = PERSON_AND_ORGANIZATION ( #134, #194 ) ;
#125 = CARTESIAN_POINT ( 'NONE',  ( 0.000000000000000000, 0.000000000000000000, 5.000000000000000000 ) ) ;
#126 = ORIENTED_EDGE ( 'NONE', *, *, #252, .T. ) ;
#127 = VECTOR ( 'NONE', #69, 1000.000000000000000 ) ;
#128 = CALENDAR_DATE ( 2023, 13, 2 ) ;
#129 = DIRECTION ( 'NONE',  ( 0.000000000000000000, 0.000000000000000000, 1.000000000000000000 ) ) ;
#130 = DIRECTION ( 'NONE',  ( -0.000000000000000000, -0.000000000000000000, -1.000000000000000000 ) ) ;
#131 = CARTESIAN_POINT ( 'NONE',  ( 0.000000000000000000, 0.000000000000000000, 315.0000000000000000 ) ) ;
#132 = VERTEX_POINT ( 'NONE', #107 ) ;
#133 = CC_DESIGN_PERSON_AND_ORGANIZATION_ASSIGNMENT ( #146, #218, ( #38 ) ) ;
#134 = PERSON ( 'NEURÈENÝ', 'NEURÈENÝ', 'NEURÈENÝ', ('NEURÈENÝ'), ('NEURÈENÝ'), ('NEURÈENÝ') ) ;
#135 = DIRECTION ( 'NONE',  ( -0.000000000000000000, -0.000000000000000000, -1.000000000000000000 ) ) ;
#136 = CIRCLE ( 'NONE', #199, 6.000000000000000888 ) ;
#137 = VERTEX_POINT ( 'NONE', #88 ) ;
#138 = DIRECTION ( 'NONE',  ( 0.000000000000000000, 0.000000000000000000, 1.000000000000000000 ) ) ;
#139 = VERTEX_POINT ( 'NONE', #94 ) ;
#140 = ADVANCED_FACE ( 'NONE', ( #192, #173 ), #248, .T. ) ;
#141 = DESIGN_CONTEXT ( 'detailed design', #22, 'design' ) ;
#142 = DIRECTION ( 'NONE',  ( 0.000000000000000000, 0.000000000000000000, 1.000000000000000000 ) ) ;
#143 = DATE_AND_TIME ( #63, #36 ) ;
#144 = AXIS2_PLACEMENT_3D ( 'NONE', #49, #241, #187 ) ;
#145 = AXIS2_PLACEMENT_3D ( 'NONE', #168, #4, #184 ) ;
#146 = PERSON_AND_ORGANIZATION ( #134, #194 ) ;
#147 = APPLICATION_PROTOCOL_DEFINITION ( 'international standard', 'config_control_design', 1994, #22 ) ;
#148 = EDGE_CURVE ( 'NONE', #132, #228, #136, .T. ) ;
#149 = EDGE_LOOP ( 'NONE', ( #211, #30, #35, #247 ) ) ;
#150 = COORDINATED_UNIVERSAL_TIME_OFFSET ( 1, 0, .AHEAD. ) ;
#151 = CYLINDRICAL_SURFACE ( 'NONE', #144, 6.000000000000000888 ) ;
#152 = ORIENTED_EDGE ( 'NONE', *, *, #116, .F. ) ;
#153 = CARTESIAN_POINT ( 'NONE',  ( 6.000000000000000888, 7.347880794884120722E-16, 5.000000000000000000 ) ) ;
#154 = CARTESIAN_POINT ( 'NONE',  ( 0.000000000000000000, 0.000000000000000000, 5.000000000000000000 ) ) ;
#155 = VERTEX_POINT ( 'NONE', #246 ) ;
#156 = DIRECTION ( 'NONE',  ( 1.000000000000000000, 0.000000000000000000, 0.000000000000000000 ) ) ;
#157 = EDGE_LOOP ( 'NONE', ( #172, #169, #225, #76 ) ) ;
#158 = LOCAL_TIME ( 14, 37, 16.00000000000000000, #48 ) ;
#159 = CIRCLE ( 'NONE', #229, 6.000000000000000888 ) ;
#160 = CC_DESIGN_SECURITY_CLASSIFICATION ( #254, ( #38 ) ) ;
#161 = CALENDAR_DATE ( 2023, 13, 2 ) ;
#162 = PRODUCT ( '8844', '8844', '', ( #20 ) ) ;
#163 = ADVANCED_FACE ( 'NONE', ( #78 ), #227, .T. ) ;
#164 = CALENDAR_DATE ( 2023, 13, 2 ) ;
#165 = LINE ( 'NONE', #240, #127 ) ;
#166 = CARTESIAN_POINT ( 'NONE',  ( 3.250000000000000444, 3.980102097228898231E-16, 5.000000000000000000 ) ) ;
#167 = DIRECTION ( 'NONE',  ( 1.000000000000000000, 0.000000000000000000, -0.000000000000000000 ) ) ;
#168 = CARTESIAN_POINT ( 'NONE',  ( 0.000000000000000000, 0.000000000000000000, 0.000000000000000000 ) ) ;
#169 = ORIENTED_EDGE ( 'NONE', *, *, #89, .F. ) ;
#170 = ORIENTED_EDGE ( 'NONE', *, *, #21, .T. ) ;
#171 = DIRECTION ( 'NONE',  ( 0.000000000000000000, 0.000000000000000000, 1.000000000000000000 ) ) ;
#172 = ORIENTED_EDGE ( 'NONE', *, *, #120, .F. ) ;
#173 = FACE_OUTER_BOUND ( 'NONE', #10, .T. ) ;
#174 = ORIENTED_EDGE ( 'NONE', *, *, #50, .T. ) ;
#175 =( GEOMETRIC_REPRESENTATION_CONTEXT ( 3 ) GLOBAL_UNCERTAINTY_ASSIGNED_CONTEXT ( ( #232 ) ) GLOBAL_UNIT_ASSIGNED_CONTEXT ( ( #101, #197, #81 ) ) REPRESENTATION_CONTEXT ( 'NONE', 'WORKASPACE' ) );
#176 = CC_DESIGN_DATE_AND_TIME_ASSIGNMENT ( #24, #46, ( #254 ) ) ;
#177 = DIRECTION ( 'NONE',  ( 0.000000000000000000, 0.000000000000000000, 1.000000000000000000 ) ) ;
#178 = AXIS2_PLACEMENT_3D ( 'NONE', #90, #51, #167 ) ;
#179 = APPROVAL_STATUS ( 'not_yet_approved' ) ;
#180 = CC_DESIGN_APPROVAL ( #8, ( #58 ) ) ;
#181 = APPROVAL_ROLE ( '' ) ;
#182 = CLOSED_SHELL ( 'NONE', ( #119, #77, #234, #140, #29, #163, #255 ) ) ;
#183 = EDGE_LOOP ( 'NONE', ( #126, #33 ) ) ;
#184 = DIRECTION ( 'NONE',  ( 1.000000000000000000, 0.000000000000000000, 0.000000000000000000 ) ) ;
#185 = DIRECTION ( 'NONE',  ( 0.000000000000000000, 0.000000000000000000, 1.000000000000000000 ) ) ;
#186 = PERSON_AND_ORGANIZATION ( #134, #194 ) ;
#187 = DIRECTION ( 'NONE',  ( -1.000000000000000000, 0.000000000000000000, 0.000000000000000000 ) ) ;
#188 = AXIS2_PLACEMENT_3D ( 'NONE', #230, #208, #98 ) ;
#189 = DIRECTION ( 'NONE',  ( 1.000000000000000000, 0.000000000000000000, -0.000000000000000000 ) ) ;
#190 = EDGE_CURVE ( 'NONE', #95, #112, #122, .T. ) ;
#191 = ORIENTED_EDGE ( 'NONE', *, *, #65, .F. ) ;
#192 = FACE_BOUND ( 'NONE', #249, .T. ) ;
#193 = ORIENTED_EDGE ( 'NONE', *, *, #89, .T. ) ;
#194 = ORGANIZATION ( 'NEURÈENÝ', 'NEURÈENÝ', '' ) ;
#195 = VECTOR ( 'NONE', #130, 1000.000000000000000 ) ;
#196 = ADVANCED_BREP_SHAPE_REPRESENTATION ( '8844', ( #59, #250 ), #175 ) ;
#197 =( NAMED_UNIT ( * ) PLANE_ANGLE_UNIT ( ) SI_UNIT ( $, .RADIAN. ) );
#198 = PERSON_AND_ORGANIZATION_ROLE ( 'creator' ) ;
#199 = AXIS2_PLACEMENT_3D ( 'NONE', #54, #113, #96 ) ;
#200 = PERSON_AND_ORGANIZATION ( #134, #194 ) ;
#201 = DIRECTION ( 'NONE',  ( 0.000000000000000000, 0.000000000000000000, 1.000000000000000000 ) ) ;
#202 = DATE_AND_TIME ( #161, #242 ) ;
#203 = DIRECTION ( 'NONE',  ( 1.000000000000000000, 0.000000000000000000, 0.000000000000000000 ) ) ;
#204 = DIRECTION ( 'NONE',  ( 1.000000000000000000, 0.000000000000000000, 0.000000000000000000 ) ) ;
#205 = PERSON_AND_ORGANIZATION ( #134, #194 ) ;
#206 = CARTESIAN_POINT ( 'NONE',  ( -6.000000000000000888, 0.000000000000000000, 5.000000000000000000 ) ) ;
#207 = AXIS2_PLACEMENT_3D ( 'NONE', #125, #129, #223 ) ;
#208 = DIRECTION ( 'NONE',  ( -0.000000000000000000, -0.000000000000000000, -1.000000000000000000 ) ) ;
#209 = ORIENTED_EDGE ( 'NONE', *, *, #50, .F. ) ;
#210 = FACE_OUTER_BOUND ( 'NONE', #157, .T. ) ;
#211 = ORIENTED_EDGE ( 'NONE', *, *, #14, .F. ) ;
#212 = APPROVAL_PERSON_ORGANIZATION ( #27, #8, #1 ) ;
#213 = CC_DESIGN_PERSON_AND_ORGANIZATION_ASSIGNMENT ( #222, #43, ( #254 ) ) ;
#214 = AXIS2_PLACEMENT_3D ( 'NONE', #131, #73, #28 ) ;
#215 = LOCAL_TIME ( 14, 37, 16.00000000000000000, #238 ) ;
#216 = APPROVAL_DATE_TIME ( #202, #8 ) ;
#217 = CC_DESIGN_PERSON_AND_ORGANIZATION_ASSIGNMENT ( #124, #198, ( #38 ) ) ;
#218 = PERSON_AND_ORGANIZATION_ROLE ( 'design_supplier' ) ;
#219 = DATE_AND_TIME ( #164, #233 ) ;
#220 = APPROVAL_STATUS ( 'not_yet_approved' ) ;
#221 = FACE_OUTER_BOUND ( 'NONE', #79, .T. ) ;
#222 = PERSON_AND_ORGANIZATION ( #134, #194 ) ;
#223 = DIRECTION ( 'NONE',  ( 1.000000000000000000, 0.000000000000000000, 0.000000000000000000 ) ) ;
#224 = CIRCLE ( 'NONE', #145, 6.000000000000000888 ) ;
#225 = ORIENTED_EDGE ( 'NONE', *, *, #39, .T. ) ;
#226 = LINE ( 'NONE', #153, #93 ) ;
#227 = CYLINDRICAL_SURFACE ( 'NONE', #188, 3.250000000000000444 ) ;
#228 = VERTEX_POINT ( 'NONE', #9 ) ;
#229 = AXIS2_PLACEMENT_3D ( 'NONE', #47, #185, #204 ) ;
#230 = CARTESIAN_POINT ( 'NONE',  ( 0.000000000000000000, 0.000000000000000000, 315.0000000000000000 ) ) ;
#231 = EDGE_LOOP ( 'NONE', ( #152, #170, #245, #209 ) ) ;
#232 = UNCERTAINTY_MEASURE_WITH_UNIT (LENGTH_MEASURE( 1.000000000000000082E-05 ), #101, 'distance_accuracy_value', 'NONE');
#233 = LOCAL_TIME ( 14, 37, 16.00000000000000000, #236 ) ;
#234 = ADVANCED_FACE ( 'NONE', ( #210 ), #34, .T. ) ;
#235 = DATE_AND_TIME ( #128, #215 ) ;
#236 = COORDINATED_UNIVERSAL_TIME_OFFSET ( 1, 0, .AHEAD. ) ;
#237 = CC_DESIGN_APPROVAL ( #84, ( #254 ) ) ;
#238 = COORDINATED_UNIVERSAL_TIME_OFFSET ( 1, 0, .AHEAD. ) ;
#239 = AXIS2_PLACEMENT_3D ( 'NONE', #111, #171, #189 ) ;
#240 = CARTESIAN_POINT ( 'NONE',  ( -3.250000000000000444, 0.000000000000000000, 315.0000000000000000 ) ) ;
#241 = DIRECTION ( 'NONE',  ( -0.000000000000000000, -0.000000000000000000, -1.000000000000000000 ) ) ;
#242 = LOCAL_TIME ( 14, 37, 16.00000000000000000, #70 ) ;
#243 = PLANE ( 'NONE',  #178 ) ;
#244 = DIRECTION ( 'NONE',  ( 0.000000000000000000, 0.000000000000000000, 1.000000000000000000 ) ) ;
#245 = ORIENTED_EDGE ( 'NONE', *, *, #190, .T. ) ;
#246 = CARTESIAN_POINT ( 'NONE',  ( 6.000000000000000888, 7.347880794884120722E-16, 5.000000000000000000 ) ) ;
#247 = ORIENTED_EDGE ( 'NONE', *, *, #39, .F. ) ;
#248 = PLANE ( 'NONE',  #239 ) ;
#249 = EDGE_LOOP ( 'NONE', ( #57, #26 ) ) ;
#250 = AXIS2_PLACEMENT_3D ( 'NONE', #62, #142, #118 ) ;
#251 = AXIS2_PLACEMENT_3D ( 'NONE', #56, #138, #61 ) ;
#252 = EDGE_CURVE ( 'NONE', #139, #137, #110, .T. ) ;
#253 = CARTESIAN_POINT ( 'NONE',  ( 0.000000000000000000, 0.000000000000000000, 315.0000000000000000 ) ) ;
#254 = SECURITY_CLASSIFICATION ( '', '', #6 ) ;
#255 = ADVANCED_FACE ( 'NONE', ( #17 ), #16, .T. ) ;
ENDSEC;
END-ISO-10303-21;
