ISO-10303-21;
HEADER;
FILE_DESCRIPTION (( 'STEP AP203' ),
    '1' );
FILE_NAME ('5435.STEP',
    '2023-01-31T14:50:07',
    ( '' ),
    ( '' ),
    'SwSTEP 2.0',
    'SolidWorks 2019',
    '' );
FILE_SCHEMA (( 'CONFIG_CONTROL_DESIGN' ));
ENDSEC;

DATA;
#1 = DIRECTION ( 'NONE',  ( 0.000000000000000000, 0.000000000000000000, 1.000000000000000000 ) ) ;
#2 = EDGE_LOOP ( 'NONE', ( #71, #135, #193, #142 ) ) ;
#3 = VECTOR ( 'NONE', #236, 1000.000000000000000 ) ;
#4 = CIRCLE ( 'NONE', #88, 0.5000000000000000000 ) ;
#5 = EDGE_LOOP ( 'NONE', ( #15, #168 ) ) ;
#6 = PRODUCT ( '5435', '5435', '', ( #138 ) ) ;
#7 = CYLINDRICAL_SURFACE ( 'NONE', #141, 0.5000000000000000000 ) ;
#8 = ORIENTED_EDGE ( 'NONE', *, *, #150, .F. ) ;
#9 = AXIS2_PLACEMENT_3D ( 'NONE', #47, #70, #232 ) ;
#10 = DIRECTION ( 'NONE',  ( 0.000000000000000000, 0.000000000000000000, 1.000000000000000000 ) ) ;
#11 =( GEOMETRIC_REPRESENTATION_CONTEXT ( 3 ) GLOBAL_UNCERTAINTY_ASSIGNED_CONTEXT ( ( #179 ) ) GLOBAL_UNIT_ASSIGNED_CONTEXT ( ( #228, #211, #171 ) ) REPRESENTATION_CONTEXT ( 'NONE', 'WORKASPACE' ) );
#12 = ORIENTED_EDGE ( 'NONE', *, *, #239, .F. ) ;
#13 = ADVANCED_FACE ( 'NONE', ( #224 ), #229, .T. ) ;
#14 = CALENDAR_DATE ( 2023, 31, 1 ) ;
#15 = ORIENTED_EDGE ( 'NONE', *, *, #121, .T. ) ;
#16 = APPROVAL_STATUS ( 'not_yet_approved' ) ;
#17 = DATE_AND_TIME ( #192, #231 ) ;
#18 = ADVANCED_FACE ( 'NONE', ( #246 ), #25, .T. ) ;
#19 = PERSON_AND_ORGANIZATION ( #39, #170 ) ;
#20 = DIRECTION ( 'NONE',  ( 1.000000000000000000, 0.000000000000000000, 0.000000000000000000 ) ) ;
#21 = EDGE_CURVE ( 'NONE', #218, #177, #55, .T. ) ;
#22 = DIRECTION ( 'NONE',  ( 0.000000000000000000, 0.000000000000000000, 1.000000000000000000 ) ) ;
#23 = CARTESIAN_POINT ( 'NONE',  ( 1.250000000000000000, 1.530808498934191571E-16, 1.199999999999999956 ) ) ;
#24 = EDGE_LOOP ( 'NONE', ( #187, #200 ) ) ;
#25 = CYLINDRICAL_SURFACE ( 'NONE', #120, 1.250000000000000000 ) ;
#26 = ORIENTED_EDGE ( 'NONE', *, *, #248, .F. ) ;
#27 = AXIS2_PLACEMENT_3D ( 'NONE', #191, #85, #20 ) ;
#28 = APPLICATION_CONTEXT ( 'configuration controlled 3d designs of mechanical parts and assemblies' ) ;
#29 = CC_DESIGN_DATE_AND_TIME_ASSIGNMENT ( #17, #93, ( #81 ) ) ;
#30 = EDGE_CURVE ( 'NONE', #174, #240, #251, .T. ) ;
#31 = LOCAL_TIME ( 15, 50, 7.000000000000000000, #76 ) ;
#32 = PERSON_AND_ORGANIZATION ( #39, #170 ) ;
#33 = PERSON_AND_ORGANIZATION_ROLE ( 'classification_officer' ) ;
#34 = APPROVAL_ROLE ( '' ) ;
#35 = SECURITY_CLASSIFICATION_LEVEL ( 'unclassified' ) ;
#36 = DIRECTION ( 'NONE',  ( -0.000000000000000000, -0.000000000000000000, -1.000000000000000000 ) ) ;
#37 = EDGE_CURVE ( 'NONE', #61, #59, #196, .T. ) ;
#38 = APPROVAL_PERSON_ORGANIZATION ( #237, #227, #77 ) ;
#39 = PERSON ( 'NEURÈENÝ', 'NEURÈENÝ', 'NEURÈENÝ', ('NEURÈENÝ'), ('NEURÈENÝ'), ('NEURÈENÝ') ) ;
#40 = FACE_OUTER_BOUND ( 'NONE', #50, .T. ) ;
#41 = CARTESIAN_POINT ( 'NONE',  ( 0.000000000000000000, 0.000000000000000000, 1.199999999999999956 ) ) ;
#42 = DIRECTION ( 'NONE',  ( -0.000000000000000000, -0.000000000000000000, -1.000000000000000000 ) ) ;
#43 = PRODUCT_DEFINITION ( 'NEZNÁMÝ', '', #137, #175 ) ;
#44 = DIRECTION ( 'NONE',  ( -1.000000000000000000, 0.000000000000000000, 0.000000000000000000 ) ) ;
#45 = CC_DESIGN_PERSON_AND_ORGANIZATION_ASSIGNMENT ( #114, #155, ( #137 ) ) ;
#46 = AXIS2_PLACEMENT_3D ( 'NONE', #220, #112, #95 ) ;
#47 = CARTESIAN_POINT ( 'NONE',  ( 0.000000000000000000, 0.000000000000000000, 100.0000000000000000 ) ) ;
#48 = ORIENTED_EDGE ( 'NONE', *, *, #37, .T. ) ;
#49 = APPLICATION_PROTOCOL_DEFINITION ( 'international standard', 'config_control_design', 1994, #149 ) ;
#50 = EDGE_LOOP ( 'NONE', ( #12, #51 ) ) ;
#51 = ORIENTED_EDGE ( 'NONE', *, *, #99, .F. ) ;
#52 = APPROVAL_DATE_TIME ( #201, #227 ) ;
#53 = AXIS2_PLACEMENT_3D ( 'NONE', #84, #148, #128 ) ;
#54 = CARTESIAN_POINT ( 'NONE',  ( -0.5000000000000000000, 0.000000000000000000, 100.0000000000000000 ) ) ;
#55 = CIRCLE ( 'NONE', #53, 0.5000000000000000000 ) ;
#56 = LOCAL_TIME ( 15, 50, 7.000000000000000000, #78 ) ;
#57 = CIRCLE ( 'NONE', #132, 1.250000000000000000 ) ;
#58 = CARTESIAN_POINT ( 'NONE',  ( 0.000000000000000000, 0.000000000000000000, 100.0000000000000000 ) ) ;
#59 = VERTEX_POINT ( 'NONE', #101 ) ;
#60 = CARTESIAN_POINT ( 'NONE',  ( 0.5000000000000000000, 6.123233995736766036E-17, 100.0000000000000000 ) ) ;
#61 = VERTEX_POINT ( 'NONE', #234 ) ;
#62 = CARTESIAN_POINT ( 'NONE',  ( 0.000000000000000000, 0.000000000000000000, 1.199999999999999956 ) ) ;
#63 = PLANE ( 'NONE',  #107 ) ;
#64 = EDGE_LOOP ( 'NONE', ( #163, #233 ) ) ;
#65 = ADVANCED_FACE ( 'NONE', ( #67 ), #178, .T. ) ;
#66 = SHAPE_DEFINITION_REPRESENTATION ( #87, #226 ) ;
#67 = FACE_OUTER_BOUND ( 'NONE', #24, .T. ) ;
#68 = APPROVAL_PERSON_ORGANIZATION ( #32, #75, #34 ) ;
#69 = PRODUCT_RELATED_PRODUCT_CATEGORY ( 'detail', '', ( #6 ) ) ;
#70 = DIRECTION ( 'NONE',  ( 0.000000000000000000, 0.000000000000000000, 1.000000000000000000 ) ) ;
#71 = ORIENTED_EDGE ( 'NONE', *, *, #104, .F. ) ;
#72 = APPROVAL_DATE_TIME ( #136, #75 ) ;
#73 = CLOSED_SHELL ( 'NONE', ( #250, #18, #13, #216, #159, #173, #65 ) ) ;
#74 = APPROVAL_PERSON_ORGANIZATION ( #153, #190, #180 ) ;
#75 = APPROVAL ( #16, 'NEURÈENÝ' ) ;
#76 = COORDINATED_UNIVERSAL_TIME_OFFSET ( 1, 0, .AHEAD. ) ;
#77 = APPROVAL_ROLE ( '' ) ;
#78 = COORDINATED_UNIVERSAL_TIME_OFFSET ( 1, 0, .AHEAD. ) ;
#79 = CYLINDRICAL_SURFACE ( 'NONE', #252, 0.5000000000000000000 ) ;
#80 = DIRECTION ( 'NONE',  ( 1.000000000000000000, 0.000000000000000000, 0.000000000000000000 ) ) ;
#81 = SECURITY_CLASSIFICATION ( '', '', #35 ) ;
#82 = CARTESIAN_POINT ( 'NONE',  ( 0.000000000000000000, 0.000000000000000000, 0.000000000000000000 ) ) ;
#83 = DIRECTION ( 'NONE',  ( 1.000000000000000000, 0.000000000000000000, -0.000000000000000000 ) ) ;
#84 = CARTESIAN_POINT ( 'NONE',  ( 0.000000000000000000, 0.000000000000000000, 100.0000000000000000 ) ) ;
#85 = DIRECTION ( 'NONE',  ( 0.000000000000000000, 0.000000000000000000, 1.000000000000000000 ) ) ;
#86 = VERTEX_POINT ( 'NONE', #154 ) ;
#87 = PRODUCT_DEFINITION_SHAPE ( 'NONE', 'NONE',  #43 ) ;
#88 = AXIS2_PLACEMENT_3D ( 'NONE', #58, #243, #186 ) ;
#89 = EDGE_LOOP ( 'NONE', ( #215, #26, #212, #48 ) ) ;
#90 = APPLICATION_PROTOCOL_DEFINITION ( 'international standard', 'config_control_design', 1994, #28 ) ;
#91 = EDGE_CURVE ( 'NONE', #240, #86, #182, .T. ) ;
#92 = AXIS2_PLACEMENT_3D ( 'NONE', #221, #203, #139 ) ;
#93 = DATE_TIME_ROLE ( 'classification_date' ) ;
#94 = PERSON_AND_ORGANIZATION ( #39, #170 ) ;
#95 = DIRECTION ( 'NONE',  ( 1.000000000000000000, 0.000000000000000000, 0.000000000000000000 ) ) ;
#96 = AXIS2_PLACEMENT_3D ( 'NONE', #189, #10, #208 ) ;
#97 = CARTESIAN_POINT ( 'NONE',  ( 0.5000000000000000000, 6.123233995736766036E-17, 100.0000000000000000 ) ) ;
#98 = DIRECTION ( 'NONE',  ( 1.000000000000000000, 0.000000000000000000, 0.000000000000000000 ) ) ;
#99 = EDGE_CURVE ( 'NONE', #185, #86, #214, .T. ) ;
#100 = CARTESIAN_POINT ( 'NONE',  ( 1.250000000000000000, 1.530808498934191571E-16, 0.000000000000000000 ) ) ;
#101 = CARTESIAN_POINT ( 'NONE',  ( 0.5000000000000000000, 6.123233995736766036E-17, 1.199999999999999956 ) ) ;
#102 = CC_DESIGN_SECURITY_CLASSIFICATION ( #81, ( #137 ) ) ;
#103 = DIRECTION ( 'NONE',  ( -1.000000000000000000, 0.000000000000000000, 0.000000000000000000 ) ) ;
#104 = EDGE_CURVE ( 'NONE', #174, #185, #117, .T. ) ;
#105 = ORIENTED_EDGE ( 'NONE', *, *, #176, .T. ) ;
#106 = DATE_AND_TIME ( #129, #31 ) ;
#107 = AXIS2_PLACEMENT_3D ( 'NONE', #184, #1, #183 ) ;
#108 = ORIENTED_EDGE ( 'NONE', *, *, #99, .T. ) ;
#109 = AXIS2_PLACEMENT_3D ( 'NONE', #82, #204, #83 ) ;
#110 = AXIS2_PLACEMENT_3D ( 'NONE', #41, #22, #98 ) ;
#111 = CC_DESIGN_APPROVAL ( #190, ( #81 ) ) ;
#112 = DIRECTION ( 'NONE',  ( 0.000000000000000000, 0.000000000000000000, 1.000000000000000000 ) ) ;
#113 = EDGE_LOOP ( 'NONE', ( #145, #247, #108, #249 ) ) ;
#114 = PERSON_AND_ORGANIZATION ( #39, #170 ) ;
#115 = EDGE_CURVE ( 'NONE', #59, #61, #254, .T. ) ;
#116 = APPROVAL_STATUS ( 'not_yet_approved' ) ;
#117 = LINE ( 'NONE', #119, #3 ) ;
#118 = PERSON_AND_ORGANIZATION_ROLE ( 'creator' ) ;
#119 = CARTESIAN_POINT ( 'NONE',  ( 1.250000000000000000, 1.530808498934191571E-16, 1.199999999999999956 ) ) ;
#120 = AXIS2_PLACEMENT_3D ( 'NONE', #62, #42, #44 ) ;
#121 = EDGE_CURVE ( 'NONE', #240, #174, #162, .T. ) ;
#122 = CARTESIAN_POINT ( 'NONE',  ( 0.000000000000000000, 0.000000000000000000, 1.199999999999999956 ) ) ;
#123 = FACE_BOUND ( 'NONE', #64, .T. ) ;
#124 = ORIENTED_EDGE ( 'NONE', *, *, #115, .T. ) ;
#125 = CC_DESIGN_APPROVAL ( #75, ( #137 ) ) ;
#126 = CC_DESIGN_PERSON_AND_ORGANIZATION_ASSIGNMENT ( #19, #33, ( #81 ) ) ;
#127 = LINE ( 'NONE', #97, #210 ) ;
#128 = DIRECTION ( 'NONE',  ( 1.000000000000000000, 0.000000000000000000, 0.000000000000000000 ) ) ;
#129 = CALENDAR_DATE ( 2023, 31, 1 ) ;
#130 = COORDINATED_UNIVERSAL_TIME_OFFSET ( 1, 0, .AHEAD. ) ;
#131 = AXIS2_PLACEMENT_3D ( 'NONE', #255, #195, #134 ) ;
#132 = AXIS2_PLACEMENT_3D ( 'NONE', #188, #167, #80 ) ;
#133 = DATE_AND_TIME ( #14, #197 ) ;
#134 = DIRECTION ( 'NONE',  ( 1.000000000000000000, 0.000000000000000000, 0.000000000000000000 ) ) ;
#135 = ORIENTED_EDGE ( 'NONE', *, *, #121, .F. ) ;
#136 = DATE_AND_TIME ( #202, #56 ) ;
#137 = PRODUCT_DEFINITION_FORMATION_WITH_SPECIFIED_SOURCE ( 'LIBOVOLNÝ', '', #6, .NOT_KNOWN. ) ;
#138 = MECHANICAL_CONTEXT ( 'NONE', #149, 'mechanical' ) ;
#139 = DIRECTION ( 'NONE',  ( 1.000000000000000000, 0.000000000000000000, 0.000000000000000000 ) ) ;
#140 = FACE_OUTER_BOUND ( 'NONE', #89, .T. ) ;
#141 = AXIS2_PLACEMENT_3D ( 'NONE', #143, #169, #103 ) ;
#142 = ORIENTED_EDGE ( 'NONE', *, *, #239, .T. ) ;
#143 = CARTESIAN_POINT ( 'NONE',  ( 0.000000000000000000, 0.000000000000000000, 100.0000000000000000 ) ) ;
#144 = FACE_OUTER_BOUND ( 'NONE', #245, .T. ) ;
#145 = ORIENTED_EDGE ( 'NONE', *, *, #30, .F. ) ;
#146 = PLANE ( 'NONE',  #109 ) ;
#147 = DIRECTION ( 'NONE',  ( -0.000000000000000000, -0.000000000000000000, -1.000000000000000000 ) ) ;
#148 = DIRECTION ( 'NONE',  ( 0.000000000000000000, 0.000000000000000000, 1.000000000000000000 ) ) ;
#149 = APPLICATION_CONTEXT ( 'configuration controlled 3d designs of mechanical parts and assemblies' ) ;
#150 = EDGE_CURVE ( 'NONE', #177, #61, #241, .T. ) ;
#151 = LOCAL_TIME ( 15, 50, 7.000000000000000000, #253 ) ;
#152 = PERSON_AND_ORGANIZATION_ROLE ( 'design_owner' ) ;
#153 = PERSON_AND_ORGANIZATION ( #39, #170 ) ;
#154 = CARTESIAN_POINT ( 'NONE',  ( -1.250000000000000000, 0.000000000000000000, 0.000000000000000000 ) ) ;
#155 = PERSON_AND_ORGANIZATION_ROLE ( 'design_supplier' ) ;
#156 = PERSON_AND_ORGANIZATION ( #39, #170 ) ;
#157 = CARTESIAN_POINT ( 'NONE',  ( -1.250000000000000000, 0.000000000000000000, 1.199999999999999956 ) ) ;
#158 = COORDINATED_UNIVERSAL_TIME_OFFSET ( 1, 0, .AHEAD. ) ;
#159 = ADVANCED_FACE ( 'NONE', ( #40 ), #146, .F. ) ;
#160 = CARTESIAN_POINT ( 'NONE',  ( 0.000000000000000000, 0.000000000000000000, 100.0000000000000000 ) ) ;
#161 = CARTESIAN_POINT ( 'NONE',  ( -1.250000000000000000, 0.000000000000000000, 1.199999999999999956 ) ) ;
#162 = CIRCLE ( 'NONE', #46, 1.250000000000000000 ) ;
#163 = ORIENTED_EDGE ( 'NONE', *, *, #37, .F. ) ;
#164 = DIRECTION ( 'NONE',  ( -1.000000000000000000, 0.000000000000000000, 0.000000000000000000 ) ) ;
#165 = CC_DESIGN_PERSON_AND_ORGANIZATION_ASSIGNMENT ( #181, #235, ( #137 ) ) ;
#166 = ORIENTED_EDGE ( 'NONE', *, *, #21, .F. ) ;
#167 = DIRECTION ( 'NONE',  ( 0.000000000000000000, 0.000000000000000000, 1.000000000000000000 ) ) ;
#168 = ORIENTED_EDGE ( 'NONE', *, *, #30, .T. ) ;
#169 = DIRECTION ( 'NONE',  ( -0.000000000000000000, -0.000000000000000000, -1.000000000000000000 ) ) ;
#170 = ORGANIZATION ( 'NEURÈENÝ', 'NEURÈENÝ', '' ) ;
#171 =( NAMED_UNIT ( * ) SI_UNIT ( $, .STERADIAN. ) SOLID_ANGLE_UNIT ( ) );
#172 = APPROVAL_DATE_TIME ( #106, #190 ) ;
#173 = ADVANCED_FACE ( 'NONE', ( #140 ), #79, .T. ) ;
#174 = VERTEX_POINT ( 'NONE', #23 ) ;
#175 = DESIGN_CONTEXT ( 'detailed design', #28, 'design' ) ;
#176 = EDGE_CURVE ( 'NONE', #218, #59, #127, .T. ) ;
#177 = VERTEX_POINT ( 'NONE', #242 ) ;
#178 = PLANE ( 'NONE',  #9 ) ;
#179 = UNCERTAINTY_MEASURE_WITH_UNIT (LENGTH_MEASURE( 1.000000000000000082E-05 ), #228, 'distance_accuracy_value', 'NONE');
#180 = APPROVAL_ROLE ( '' ) ;
#181 = PERSON_AND_ORGANIZATION ( #39, #170 ) ;
#182 = LINE ( 'NONE', #157, #194 ) ;
#183 = DIRECTION ( 'NONE',  ( 1.000000000000000000, 0.000000000000000000, -0.000000000000000000 ) ) ;
#184 = CARTESIAN_POINT ( 'NONE',  ( 0.000000000000000000, 0.000000000000000000, 1.199999999999999956 ) ) ;
#185 = VERTEX_POINT ( 'NONE', #100 ) ;
#186 = DIRECTION ( 'NONE',  ( 1.000000000000000000, 0.000000000000000000, 0.000000000000000000 ) ) ;
#187 = ORIENTED_EDGE ( 'NONE', *, *, #248, .T. ) ;
#188 = CARTESIAN_POINT ( 'NONE',  ( 0.000000000000000000, 0.000000000000000000, 0.000000000000000000 ) ) ;
#189 = CARTESIAN_POINT ( 'NONE',  ( 0.000000000000000000, 0.000000000000000000, 1.199999999999999956 ) ) ;
#190 = APPROVAL ( #199, 'NEURÈENÝ' ) ;
#191 = CARTESIAN_POINT ( 'NONE',  ( 0.000000000000000000, 0.000000000000000000, 0.000000000000000000 ) ) ;
#192 = CALENDAR_DATE ( 2023, 31, 1 ) ;
#193 = ORIENTED_EDGE ( 'NONE', *, *, #91, .T. ) ;
#194 = VECTOR ( 'NONE', #238, 1000.000000000000000 ) ;
#195 = DIRECTION ( 'NONE',  ( 0.000000000000000000, 0.000000000000000000, 1.000000000000000000 ) ) ;
#196 = CIRCLE ( 'NONE', #110, 0.5000000000000000000 ) ;
#197 = LOCAL_TIME ( 15, 50, 7.000000000000000000, #158 ) ;
#198 = CALENDAR_DATE ( 2023, 31, 1 ) ;
#199 = APPROVAL_STATUS ( 'not_yet_approved' ) ;
#200 = ORIENTED_EDGE ( 'NONE', *, *, #21, .T. ) ;
#201 = DATE_AND_TIME ( #198, #151 ) ;
#202 = CALENDAR_DATE ( 2023, 31, 1 ) ;
#203 = DIRECTION ( 'NONE',  ( 0.000000000000000000, 0.000000000000000000, 1.000000000000000000 ) ) ;
#204 = DIRECTION ( 'NONE',  ( 0.000000000000000000, 0.000000000000000000, 1.000000000000000000 ) ) ;
#205 = DIRECTION ( 'NONE',  ( -0.000000000000000000, -0.000000000000000000, -1.000000000000000000 ) ) ;
#206 = CC_DESIGN_PERSON_AND_ORGANIZATION_ASSIGNMENT ( #94, #152, ( #6 ) ) ;
#207 = DIRECTION ( 'NONE',  ( -0.000000000000000000, -0.000000000000000000, -1.000000000000000000 ) ) ;
#208 = DIRECTION ( 'NONE',  ( 1.000000000000000000, 0.000000000000000000, 0.000000000000000000 ) ) ;
#209 = VECTOR ( 'NONE', #36, 1000.000000000000000 ) ;
#210 = VECTOR ( 'NONE', #147, 1000.000000000000000 ) ;
#211 =( NAMED_UNIT ( * ) PLANE_ANGLE_UNIT ( ) SI_UNIT ( $, .RADIAN. ) );
#212 = ORIENTED_EDGE ( 'NONE', *, *, #150, .T. ) ;
#213 = MANIFOLD_SOLID_BREP ( 'Pøidat vysunutím3', #73 ) ;
#214 = CIRCLE ( 'NONE', #92, 1.250000000000000000 ) ;
#215 = ORIENTED_EDGE ( 'NONE', *, *, #176, .F. ) ;
#216 = ADVANCED_FACE ( 'NONE', ( #123, #244 ), #63, .T. ) ;
#217 = AXIS2_PLACEMENT_3D ( 'NONE', #122, #205, #225 ) ;
#218 = VERTEX_POINT ( 'NONE', #60 ) ;
#219 = DATE_TIME_ROLE ( 'creation_date' ) ;
#220 = CARTESIAN_POINT ( 'NONE',  ( 0.000000000000000000, 0.000000000000000000, 1.199999999999999956 ) ) ;
#221 = CARTESIAN_POINT ( 'NONE',  ( 0.000000000000000000, 0.000000000000000000, 0.000000000000000000 ) ) ;
#222 = CC_DESIGN_APPROVAL ( #227, ( #43 ) ) ;
#223 = CC_DESIGN_DATE_AND_TIME_ASSIGNMENT ( #133, #219, ( #43 ) ) ;
#224 = FACE_OUTER_BOUND ( 'NONE', #2, .T. ) ;
#225 = DIRECTION ( 'NONE',  ( -1.000000000000000000, 0.000000000000000000, 0.000000000000000000 ) ) ;
#226 = ADVANCED_BREP_SHAPE_REPRESENTATION ( '5435', ( #213, #27 ), #11 ) ;
#227 = APPROVAL ( #116, 'NEURÈENÝ' ) ;
#228 =( LENGTH_UNIT ( ) NAMED_UNIT ( * ) SI_UNIT ( .MILLI., .METRE. ) );
#229 = CYLINDRICAL_SURFACE ( 'NONE', #217, 1.250000000000000000 ) ;
#230 = CC_DESIGN_PERSON_AND_ORGANIZATION_ASSIGNMENT ( #156, #118, ( #43 ) ) ;
#231 = LOCAL_TIME ( 15, 50, 7.000000000000000000, #130 ) ;
#232 = DIRECTION ( 'NONE',  ( 1.000000000000000000, 0.000000000000000000, -0.000000000000000000 ) ) ;
#233 = ORIENTED_EDGE ( 'NONE', *, *, #115, .F. ) ;
#234 = CARTESIAN_POINT ( 'NONE',  ( -0.5000000000000000000, 0.000000000000000000, 1.199999999999999956 ) ) ;
#235 = PERSON_AND_ORGANIZATION_ROLE ( 'creator' ) ;
#236 = DIRECTION ( 'NONE',  ( -0.000000000000000000, -0.000000000000000000, -1.000000000000000000 ) ) ;
#237 = PERSON_AND_ORGANIZATION ( #39, #170 ) ;
#238 = DIRECTION ( 'NONE',  ( -0.000000000000000000, -0.000000000000000000, -1.000000000000000000 ) ) ;
#239 = EDGE_CURVE ( 'NONE', #86, #185, #57, .T. ) ;
#240 = VERTEX_POINT ( 'NONE', #161 ) ;
#241 = LINE ( 'NONE', #54, #209 ) ;
#242 = CARTESIAN_POINT ( 'NONE',  ( -0.5000000000000000000, 0.000000000000000000, 100.0000000000000000 ) ) ;
#243 = DIRECTION ( 'NONE',  ( 0.000000000000000000, 0.000000000000000000, 1.000000000000000000 ) ) ;
#244 = FACE_OUTER_BOUND ( 'NONE', #5, .T. ) ;
#245 = EDGE_LOOP ( 'NONE', ( #166, #105, #124, #8 ) ) ;
#246 = FACE_OUTER_BOUND ( 'NONE', #113, .T. ) ;
#247 = ORIENTED_EDGE ( 'NONE', *, *, #104, .T. ) ;
#248 = EDGE_CURVE ( 'NONE', #177, #218, #4, .T. ) ;
#249 = ORIENTED_EDGE ( 'NONE', *, *, #91, .F. ) ;
#250 = ADVANCED_FACE ( 'NONE', ( #144 ), #7, .T. ) ;
#251 = CIRCLE ( 'NONE', #96, 1.250000000000000000 ) ;
#252 = AXIS2_PLACEMENT_3D ( 'NONE', #160, #207, #164 ) ;
#253 = COORDINATED_UNIVERSAL_TIME_OFFSET ( 1, 0, .AHEAD. ) ;
#254 = CIRCLE ( 'NONE', #131, 0.5000000000000000000 ) ;
#255 = CARTESIAN_POINT ( 'NONE',  ( 0.000000000000000000, 0.000000000000000000, 1.199999999999999956 ) ) ;
ENDSEC;
END-ISO-10303-21;
