ISO-10303-21;
HEADER;
FILE_DESCRIPTION (( 'STEP AP203' ),
    '1' );
FILE_NAME ('0973.STEP',
    '2023-02-13T15:38:03',
    ( '' ),
    ( '' ),
    'SwSTEP 2.0',
    'SolidWorks 2019',
    '' );
FILE_SCHEMA (( 'CONFIG_CONTROL_DESIGN' ));
ENDSEC;

DATA;
#1 = DATE_AND_TIME ( #24, #149 ) ;
#2 = ORGANIZATION ( 'NEURÈENÝ', 'NEURÈENÝ', '' ) ;
#3 = APPROVAL_DATE_TIME ( #177, #97 ) ;
#4 = EDGE_LOOP ( 'NONE', ( #95, #99, #69, #77 ) ) ;
#5 = LINE ( 'NONE', #194, #124 ) ;
#6 = CIRCLE ( 'NONE', #84, 1.500000000000000222 ) ;
#7 = CARTESIAN_POINT ( 'NONE',  ( 0.000000000000000000, 0.000000000000000000, 100.0000000000000000 ) ) ;
#8 = ORIENTED_EDGE ( 'NONE', *, *, #254, .F. ) ;
#9 = VERTEX_POINT ( 'NONE', #205 ) ;
#10 = UNCERTAINTY_MEASURE_WITH_UNIT (LENGTH_MEASURE( 1.000000000000000082E-05 ), #139, 'distance_accuracy_value', 'NONE');
#11 = CC_DESIGN_DATE_AND_TIME_ASSIGNMENT ( #160, #198, ( #167 ) ) ;
#12 = DIRECTION ( 'NONE',  ( 1.000000000000000000, 0.000000000000000000, -0.000000000000000000 ) ) ;
#13 = CARTESIAN_POINT ( 'NONE',  ( 0.000000000000000000, 0.000000000000000000, 0.000000000000000000 ) ) ;
#14 = PLANE ( 'NONE',  #148 ) ;
#15 = APPLICATION_PROTOCOL_DEFINITION ( 'international standard', 'config_control_design', 1994, #118 ) ;
#16 = AXIS2_PLACEMENT_3D ( 'NONE', #80, #212, #213 ) ;
#17 = CARTESIAN_POINT ( 'NONE',  ( -3.000000000000000444, 0.000000000000000000, 0.000000000000000000 ) ) ;
#18 = EDGE_CURVE ( 'NONE', #236, #227, #115, .T. ) ;
#19 = PERSON_AND_ORGANIZATION ( #238, #2 ) ;
#20 = COORDINATED_UNIVERSAL_TIME_OFFSET ( 1, 0, .AHEAD. ) ;
#21 = AXIS2_PLACEMENT_3D ( 'NONE', #37, #44, #127 ) ;
#22 = LOCAL_TIME ( 16, 38, 3.000000000000000000, #20 ) ;
#23 = PERSON_AND_ORGANIZATION_ROLE ( 'design_supplier' ) ;
#24 = CALENDAR_DATE ( 2023, 13, 2 ) ;
#25 = CARTESIAN_POINT ( 'NONE',  ( 1.500000000000000222, 1.836970198721029934E-16, 100.0000000000000000 ) ) ;
#26 = DIRECTION ( 'NONE',  ( -0.000000000000000000, -0.000000000000000000, -1.000000000000000000 ) ) ;
#27 = EDGE_LOOP ( 'NONE', ( #222, #248, #245, #193 ) ) ;
#28 = ORIENTED_EDGE ( 'NONE', *, *, #168, .T. ) ;
#29 = CARTESIAN_POINT ( 'NONE',  ( 0.000000000000000000, 0.000000000000000000, 100.0000000000000000 ) ) ;
#30 = VERTEX_POINT ( 'NONE', #51 ) ;
#31 = CIRCLE ( 'NONE', #49, 3.000000000000000444 ) ;
#32 = DIRECTION ( 'NONE',  ( 0.000000000000000000, 0.000000000000000000, 1.000000000000000000 ) ) ;
#33 = DIRECTION ( 'NONE',  ( 1.000000000000000000, 0.000000000000000000, -0.000000000000000000 ) ) ;
#34 =( NAMED_UNIT ( * ) PLANE_ANGLE_UNIT ( ) SI_UNIT ( $, .RADIAN. ) );
#35 = LOCAL_TIME ( 16, 38, 3.000000000000000000, #71 ) ;
#36 = DIRECTION ( 'NONE',  ( 0.000000000000000000, 0.000000000000000000, 1.000000000000000000 ) ) ;
#37 = CARTESIAN_POINT ( 'NONE',  ( 0.000000000000000000, 0.000000000000000000, 100.0000000000000000 ) ) ;
#38 = EDGE_LOOP ( 'NONE', ( #211, #237, #241, #28 ) ) ;
#39 = CC_DESIGN_PERSON_AND_ORGANIZATION_ASSIGNMENT ( #109, #181, ( #157 ) ) ;
#40 = DIRECTION ( 'NONE',  ( -1.000000000000000000, 0.000000000000000000, 0.000000000000000000 ) ) ;
#41 = CIRCLE ( 'NONE', #209, 1.500000000000000222 ) ;
#42 = PERSON_AND_ORGANIZATION ( #238, #2 ) ;
#43 = DIRECTION ( 'NONE',  ( 0.000000000000000000, 0.000000000000000000, 1.000000000000000000 ) ) ;
#44 = DIRECTION ( 'NONE',  ( 0.000000000000000000, 0.000000000000000000, 1.000000000000000000 ) ) ;
#45 = EDGE_CURVE ( 'NONE', #236, #53, #244, .T. ) ;
#46 = CALENDAR_DATE ( 2023, 13, 2 ) ;
#47 = CARTESIAN_POINT ( 'NONE',  ( 1.500000000000000222, 1.836970198721029934E-16, 100.0000000000000000 ) ) ;
#48 = PERSON_AND_ORGANIZATION_ROLE ( 'creator' ) ;
#49 = AXIS2_PLACEMENT_3D ( 'NONE', #54, #134, #131 ) ;
#50 = EDGE_CURVE ( 'NONE', #58, #239, #31, .T. ) ;
#51 = CARTESIAN_POINT ( 'NONE',  ( -3.000000000000000444, 0.000000000000000000, 3.000000000000000000 ) ) ;
#52 = AXIS2_PLACEMENT_3D ( 'NONE', #187, #57, #210 ) ;
#53 = VERTEX_POINT ( 'NONE', #25 ) ;
#54 = CARTESIAN_POINT ( 'NONE',  ( 0.000000000000000000, 0.000000000000000000, 0.000000000000000000 ) ) ;
#55 = ORIENTED_EDGE ( 'NONE', *, *, #249, .T. ) ;
#56 = PRODUCT_DEFINITION_SHAPE ( 'NONE', 'NONE',  #167 ) ;
#57 = DIRECTION ( 'NONE',  ( 0.000000000000000000, 0.000000000000000000, 1.000000000000000000 ) ) ;
#58 = VERTEX_POINT ( 'NONE', #74 ) ;
#59 = CIRCLE ( 'NONE', #52, 3.000000000000000444 ) ;
#60 = LOCAL_TIME ( 16, 38, 3.000000000000000000, #72 ) ;
#61 = DESIGN_CONTEXT ( 'detailed design', #116, 'design' ) ;
#62 = DIRECTION ( 'NONE',  ( 1.000000000000000000, 0.000000000000000000, 0.000000000000000000 ) ) ;
#63 = CARTESIAN_POINT ( 'NONE',  ( 3.000000000000000444, 3.673940397442060361E-16, 3.000000000000000000 ) ) ;
#64 = DIRECTION ( 'NONE',  ( 1.000000000000000000, 0.000000000000000000, 0.000000000000000000 ) ) ;
#65 = ORIENTED_EDGE ( 'NONE', *, *, #162, .T. ) ;
#66 = CARTESIAN_POINT ( 'NONE',  ( 0.000000000000000000, 0.000000000000000000, 3.000000000000000000 ) ) ;
#67 = CARTESIAN_POINT ( 'NONE',  ( 0.000000000000000000, 0.000000000000000000, 3.000000000000000000 ) ) ;
#68 = PRODUCT_RELATED_PRODUCT_CATEGORY ( 'detail', '', ( #206 ) ) ;
#69 = ORIENTED_EDGE ( 'NONE', *, *, #18, .T. ) ;
#70 = DIRECTION ( 'NONE',  ( -1.000000000000000000, 0.000000000000000000, 0.000000000000000000 ) ) ;
#71 = COORDINATED_UNIVERSAL_TIME_OFFSET ( 1, 0, .AHEAD. ) ;
#72 = COORDINATED_UNIVERSAL_TIME_OFFSET ( 1, 0, .AHEAD. ) ;
#73 =( GEOMETRIC_REPRESENTATION_CONTEXT ( 3 ) GLOBAL_UNCERTAINTY_ASSIGNED_CONTEXT ( ( #10 ) ) GLOBAL_UNIT_ASSIGNED_CONTEXT ( ( #139, #34, #174 ) ) REPRESENTATION_CONTEXT ( 'NONE', 'WORKASPACE' ) );
#74 = CARTESIAN_POINT ( 'NONE',  ( 3.000000000000000444, 3.673940397442060361E-16, 0.000000000000000000 ) ) ;
#75 = EDGE_LOOP ( 'NONE', ( #229, #176 ) ) ;
#76 = VECTOR ( 'NONE', #146, 1000.000000000000000 ) ;
#77 = ORIENTED_EDGE ( 'NONE', *, *, #254, .T. ) ;
#78 = CC_DESIGN_APPROVAL ( #97, ( #157 ) ) ;
#79 = VERTEX_POINT ( 'NONE', #143 ) ;
#80 = CARTESIAN_POINT ( 'NONE',  ( 0.000000000000000000, 0.000000000000000000, 3.000000000000000000 ) ) ;
#81 = CYLINDRICAL_SURFACE ( 'NONE', #234, 3.000000000000000444 ) ;
#82 = PLANE ( 'NONE',  #180 ) ;
#83 = EDGE_LOOP ( 'NONE', ( #65, #112 ) ) ;
#84 = AXIS2_PLACEMENT_3D ( 'NONE', #246, #154, #62 ) ;
#85 = COORDINATED_UNIVERSAL_TIME_OFFSET ( 1, 0, .AHEAD. ) ;
#86 = EDGE_CURVE ( 'NONE', #53, #79, #163, .T. ) ;
#87 = LOCAL_TIME ( 16, 38, 3.000000000000000000, #85 ) ;
#88 = PERSON_AND_ORGANIZATION ( #238, #2 ) ;
#89 = MANIFOLD_SOLID_BREP ( 'Pøidat vysunutím3', #100 ) ;
#90 = ADVANCED_FACE ( 'NONE', ( #144 ), #103, .T. ) ;
#91 = ORIENTED_EDGE ( 'NONE', *, *, #18, .F. ) ;
#92 = DIRECTION ( 'NONE',  ( -1.000000000000000000, 0.000000000000000000, 0.000000000000000000 ) ) ;
#93 = CC_DESIGN_APPROVAL ( #233, ( #166 ) ) ;
#94 = DIRECTION ( 'NONE',  ( 1.000000000000000000, 0.000000000000000000, 0.000000000000000000 ) ) ;
#95 = ORIENTED_EDGE ( 'NONE', *, *, #86, .F. ) ;
#96 = ORIENTED_EDGE ( 'NONE', *, *, #168, .F. ) ;
#97 = APPROVAL ( #200, 'NEURÈENÝ' ) ;
#98 = DIRECTION ( 'NONE',  ( 1.000000000000000000, 0.000000000000000000, -0.000000000000000000 ) ) ;
#99 = ORIENTED_EDGE ( 'NONE', *, *, #45, .F. ) ;
#100 = CLOSED_SHELL ( 'NONE', ( #138, #207, #110, #247, #182, #90, #164 ) ) ;
#101 = FACE_OUTER_BOUND ( 'NONE', #83, .T. ) ;
#102 = DIRECTION ( 'NONE',  ( 0.000000000000000000, 0.000000000000000000, 1.000000000000000000 ) ) ;
#103 = CYLINDRICAL_SURFACE ( 'NONE', #197, 1.500000000000000222 ) ;
#104 = APPLICATION_PROTOCOL_DEFINITION ( 'international standard', 'config_control_design', 1994, #116 ) ;
#105 = APPROVAL_ROLE ( '' ) ;
#106 = VECTOR ( 'NONE', #26, 1000.000000000000000 ) ;
#107 = CC_DESIGN_APPROVAL ( #133, ( #167 ) ) ;
#108 = APPROVAL_DATE_TIME ( #1, #233 ) ;
#109 = PERSON_AND_ORGANIZATION ( #238, #2 ) ;
#110 = ADVANCED_FACE ( 'NONE', ( #159 ), #216, .T. ) ;
#111 = SHAPE_DEFINITION_REPRESENTATION ( #56, #251 ) ;
#112 = ORIENTED_EDGE ( 'NONE', *, *, #169, .T. ) ;
#113 = FACE_OUTER_BOUND ( 'NONE', #122, .T. ) ;
#114 = DIRECTION ( 'NONE',  ( 1.000000000000000000, 0.000000000000000000, 0.000000000000000000 ) ) ;
#115 = LINE ( 'NONE', #221, #76 ) ;
#116 = APPLICATION_CONTEXT ( 'configuration controlled 3d designs of mechanical parts and assemblies' ) ;
#117 = FACE_OUTER_BOUND ( 'NONE', #27, .T. ) ;
#118 = APPLICATION_CONTEXT ( 'configuration controlled 3d designs of mechanical parts and assemblies' ) ;
#119 = AXIS2_PLACEMENT_3D ( 'NONE', #170, #32, #114 ) ;
#120 = EDGE_CURVE ( 'NONE', #30, #239, #5, .T. ) ;
#121 = CARTESIAN_POINT ( 'NONE',  ( -1.500000000000000222, 0.000000000000000000, 100.0000000000000000 ) ) ;
#122 = EDGE_LOOP ( 'NONE', ( #137, #225, #55, #91 ) ) ;
#123 = FACE_OUTER_BOUND ( 'NONE', #132, .T. ) ;
#124 = VECTOR ( 'NONE', #196, 1000.000000000000000 ) ;
#125 = SECURITY_CLASSIFICATION_LEVEL ( 'unclassified' ) ;
#126 = APPROVAL_STATUS ( 'not_yet_approved' ) ;
#127 = DIRECTION ( 'NONE',  ( 1.000000000000000000, 0.000000000000000000, 0.000000000000000000 ) ) ;
#128 = DATE_AND_TIME ( #178, #35 ) ;
#129 = PERSON_AND_ORGANIZATION ( #238, #2 ) ;
#130 = EDGE_CURVE ( 'NONE', #9, #58, #226, .T. ) ;
#131 = DIRECTION ( 'NONE',  ( 1.000000000000000000, 0.000000000000000000, 0.000000000000000000 ) ) ;
#132 = EDGE_LOOP ( 'NONE', ( #96, #150 ) ) ;
#133 = APPROVAL ( #214, 'NEURÈENÝ' ) ;
#134 = DIRECTION ( 'NONE',  ( 0.000000000000000000, 0.000000000000000000, 1.000000000000000000 ) ) ;
#135 = DIRECTION ( 'NONE',  ( 0.000000000000000000, 0.000000000000000000, 1.000000000000000000 ) ) ;
#136 = CIRCLE ( 'NONE', #16, 3.000000000000000444 ) ;
#137 = ORIENTED_EDGE ( 'NONE', *, *, #152, .F. ) ;
#138 = ADVANCED_FACE ( 'NONE', ( #113 ), #147, .T. ) ;
#139 =( LENGTH_UNIT ( ) NAMED_UNIT ( * ) SI_UNIT ( .MILLI., .METRE. ) );
#140 = CC_DESIGN_PERSON_AND_ORGANIZATION_ASSIGNMENT ( #88, #219, ( #167 ) ) ;
#141 = CARTESIAN_POINT ( 'NONE',  ( 0.000000000000000000, 0.000000000000000000, 0.000000000000000000 ) ) ;
#142 = COORDINATED_UNIVERSAL_TIME_OFFSET ( 1, 0, .AHEAD. ) ;
#143 = CARTESIAN_POINT ( 'NONE',  ( 1.500000000000000222, 1.836970198721029934E-16, 3.000000000000000000 ) ) ;
#144 = FACE_OUTER_BOUND ( 'NONE', #4, .T. ) ;
#145 = CC_DESIGN_PERSON_AND_ORGANIZATION_ASSIGNMENT ( #179, #23, ( #166 ) ) ;
#146 = DIRECTION ( 'NONE',  ( -0.000000000000000000, -0.000000000000000000, -1.000000000000000000 ) ) ;
#147 = CYLINDRICAL_SURFACE ( 'NONE', #235, 1.500000000000000222 ) ;
#148 = AXIS2_PLACEMENT_3D ( 'NONE', #208, #43, #12 ) ;
#149 = LOCAL_TIME ( 16, 38, 3.000000000000000000, #142 ) ;
#150 = ORIENTED_EDGE ( 'NONE', *, *, #50, .F. ) ;
#151 = APPROVAL_DATE_TIME ( #242, #133 ) ;
#152 = EDGE_CURVE ( 'NONE', #53, #236, #223, .T. ) ;
#153 = MECHANICAL_CONTEXT ( 'NONE', #118, 'mechanical' ) ;
#154 = DIRECTION ( 'NONE',  ( 0.000000000000000000, 0.000000000000000000, 1.000000000000000000 ) ) ;
#155 = DIRECTION ( 'NONE',  ( -0.000000000000000000, -0.000000000000000000, -1.000000000000000000 ) ) ;
#156 = DIRECTION ( 'NONE',  ( -1.000000000000000000, 0.000000000000000000, 0.000000000000000000 ) ) ;
#157 = SECURITY_CLASSIFICATION ( '', '', #125 ) ;
#158 = CARTESIAN_POINT ( 'NONE',  ( 0.000000000000000000, 0.000000000000000000, 100.0000000000000000 ) ) ;
#159 = FACE_OUTER_BOUND ( 'NONE', #38, .T. ) ;
#160 = DATE_AND_TIME ( #46, #87 ) ;
#161 = AXIS2_PLACEMENT_3D ( 'NONE', #67, #102, #33 ) ;
#162 = EDGE_CURVE ( 'NONE', #30, #9, #191, .T. ) ;
#163 = LINE ( 'NONE', #47, #106 ) ;
#164 = ADVANCED_FACE ( 'NONE', ( #240 ), #14, .T. ) ;
#165 = ORIENTED_EDGE ( 'NONE', *, *, #249, .F. ) ;
#166 = PRODUCT_DEFINITION_FORMATION_WITH_SPECIFIED_SOURCE ( 'LIBOVOLNÝ', '', #206, .NOT_KNOWN. ) ;
#167 = PRODUCT_DEFINITION ( 'NEZNÁMÝ', '', #166, #61 ) ;
#168 = EDGE_CURVE ( 'NONE', #239, #58, #59, .T. ) ;
#169 = EDGE_CURVE ( 'NONE', #9, #30, #136, .T. ) ;
#170 = CARTESIAN_POINT ( 'NONE',  ( 0.000000000000000000, 0.000000000000000000, 3.000000000000000000 ) ) ;
#171 = CALENDAR_DATE ( 2023, 13, 2 ) ;
#172 = DIRECTION ( 'NONE',  ( -0.000000000000000000, -0.000000000000000000, -1.000000000000000000 ) ) ;
#173 = AXIS2_PLACEMENT_3D ( 'NONE', #202, #184, #92 ) ;
#174 =( NAMED_UNIT ( * ) SI_UNIT ( $, .STERADIAN. ) SOLID_ANGLE_UNIT ( ) );
#175 = CARTESIAN_POINT ( 'NONE',  ( 0.000000000000000000, 0.000000000000000000, 3.000000000000000000 ) ) ;
#176 = ORIENTED_EDGE ( 'NONE', *, *, #152, .T. ) ;
#177 = DATE_AND_TIME ( #255, #60 ) ;
#178 = CALENDAR_DATE ( 2023, 13, 2 ) ;
#179 = PERSON_AND_ORGANIZATION ( #238, #2 ) ;
#180 = AXIS2_PLACEMENT_3D ( 'NONE', #13, #36, #98 ) ;
#181 = PERSON_AND_ORGANIZATION_ROLE ( 'classification_officer' ) ;
#182 = ADVANCED_FACE ( 'NONE', ( #123 ), #82, .F. ) ;
#183 = AXIS2_PLACEMENT_3D ( 'NONE', #7, #186, #94 ) ;
#184 = DIRECTION ( 'NONE',  ( -0.000000000000000000, -0.000000000000000000, -1.000000000000000000 ) ) ;
#185 = AXIS2_PLACEMENT_3D ( 'NONE', #141, #135, #64 ) ;
#186 = DIRECTION ( 'NONE',  ( 0.000000000000000000, 0.000000000000000000, 1.000000000000000000 ) ) ;
#187 = CARTESIAN_POINT ( 'NONE',  ( 0.000000000000000000, 0.000000000000000000, 0.000000000000000000 ) ) ;
#188 = CC_DESIGN_DATE_AND_TIME_ASSIGNMENT ( #128, #217, ( #157 ) ) ;
#189 = PERSON_AND_ORGANIZATION_ROLE ( 'design_owner' ) ;
#190 = CC_DESIGN_PERSON_AND_ORGANIZATION_ASSIGNMENT ( #232, #48, ( #166 ) ) ;
#191 = CIRCLE ( 'NONE', #119, 3.000000000000000444 ) ;
#192 = PLANE ( 'NONE',  #161 ) ;
#193 = ORIENTED_EDGE ( 'NONE', *, *, #120, .F. ) ;
#194 = CARTESIAN_POINT ( 'NONE',  ( -3.000000000000000444, 0.000000000000000000, 3.000000000000000000 ) ) ;
#195 = APPROVAL_ROLE ( '' ) ;
#196 = DIRECTION ( 'NONE',  ( -0.000000000000000000, -0.000000000000000000, -1.000000000000000000 ) ) ;
#197 = AXIS2_PLACEMENT_3D ( 'NONE', #158, #231, #70 ) ;
#198 = DATE_TIME_ROLE ( 'creation_date' ) ;
#199 = CC_DESIGN_SECURITY_CLASSIFICATION ( #157, ( #166 ) ) ;
#200 = APPROVAL_STATUS ( 'not_yet_approved' ) ;
#201 = APPROVAL_PERSON_ORGANIZATION ( #129, #233, #105 ) ;
#202 = CARTESIAN_POINT ( 'NONE',  ( 0.000000000000000000, 0.000000000000000000, 3.000000000000000000 ) ) ;
#203 = DIRECTION ( 'NONE',  ( -0.000000000000000000, -0.000000000000000000, -1.000000000000000000 ) ) ;
#204 = EDGE_LOOP ( 'NONE', ( #8, #165 ) ) ;
#205 = CARTESIAN_POINT ( 'NONE',  ( 3.000000000000000444, 3.673940397442060361E-16, 3.000000000000000000 ) ) ;
#206 = PRODUCT ( '0973', '0973', '', ( #153 ) ) ;
#207 = ADVANCED_FACE ( 'NONE', ( #117 ), #81, .T. ) ;
#208 = CARTESIAN_POINT ( 'NONE',  ( 0.000000000000000000, 0.000000000000000000, 100.0000000000000000 ) ) ;
#209 = AXIS2_PLACEMENT_3D ( 'NONE', #175, #228, #250 ) ;
#210 = DIRECTION ( 'NONE',  ( 1.000000000000000000, 0.000000000000000000, 0.000000000000000000 ) ) ;
#211 = ORIENTED_EDGE ( 'NONE', *, *, #130, .F. ) ;
#212 = DIRECTION ( 'NONE',  ( 0.000000000000000000, 0.000000000000000000, 1.000000000000000000 ) ) ;
#213 = DIRECTION ( 'NONE',  ( 1.000000000000000000, 0.000000000000000000, 0.000000000000000000 ) ) ;
#214 = APPROVAL_STATUS ( 'not_yet_approved' ) ;
#215 = APPROVAL_ROLE ( '' ) ;
#216 = CYLINDRICAL_SURFACE ( 'NONE', #173, 3.000000000000000444 ) ;
#217 = DATE_TIME_ROLE ( 'classification_date' ) ;
#218 = APPROVAL_PERSON_ORGANIZATION ( #252, #133, #195 ) ;
#219 = PERSON_AND_ORGANIZATION_ROLE ( 'creator' ) ;
#220 = APPROVAL_PERSON_ORGANIZATION ( #42, #97, #215 ) ;
#221 = CARTESIAN_POINT ( 'NONE',  ( -1.500000000000000222, 0.000000000000000000, 100.0000000000000000 ) ) ;
#222 = ORIENTED_EDGE ( 'NONE', *, *, #169, .F. ) ;
#223 = CIRCLE ( 'NONE', #21, 1.500000000000000222 ) ;
#224 = CC_DESIGN_PERSON_AND_ORGANIZATION_ASSIGNMENT ( #19, #189, ( #206 ) ) ;
#225 = ORIENTED_EDGE ( 'NONE', *, *, #86, .T. ) ;
#226 = LINE ( 'NONE', #63, #253 ) ;
#227 = VERTEX_POINT ( 'NONE', #243 ) ;
#228 = DIRECTION ( 'NONE',  ( 0.000000000000000000, 0.000000000000000000, 1.000000000000000000 ) ) ;
#229 = ORIENTED_EDGE ( 'NONE', *, *, #45, .T. ) ;
#230 = FACE_BOUND ( 'NONE', #204, .T. ) ;
#231 = DIRECTION ( 'NONE',  ( -0.000000000000000000, -0.000000000000000000, -1.000000000000000000 ) ) ;
#232 = PERSON_AND_ORGANIZATION ( #238, #2 ) ;
#233 = APPROVAL ( #126, 'NEURÈENÝ' ) ;
#234 = AXIS2_PLACEMENT_3D ( 'NONE', #66, #172, #156 ) ;
#235 = AXIS2_PLACEMENT_3D ( 'NONE', #29, #155, #40 ) ;
#236 = VERTEX_POINT ( 'NONE', #121 ) ;
#237 = ORIENTED_EDGE ( 'NONE', *, *, #162, .F. ) ;
#238 = PERSON ( 'NEURÈENÝ', 'NEURÈENÝ', 'NEURÈENÝ', ('NEURÈENÝ'), ('NEURÈENÝ'), ('NEURÈENÝ') ) ;
#239 = VERTEX_POINT ( 'NONE', #17 ) ;
#240 = FACE_OUTER_BOUND ( 'NONE', #75, .T. ) ;
#241 = ORIENTED_EDGE ( 'NONE', *, *, #120, .T. ) ;
#242 = DATE_AND_TIME ( #171, #22 ) ;
#243 = CARTESIAN_POINT ( 'NONE',  ( -1.500000000000000222, 0.000000000000000000, 3.000000000000000000 ) ) ;
#244 = CIRCLE ( 'NONE', #183, 1.500000000000000222 ) ;
#245 = ORIENTED_EDGE ( 'NONE', *, *, #50, .T. ) ;
#246 = CARTESIAN_POINT ( 'NONE',  ( 0.000000000000000000, 0.000000000000000000, 3.000000000000000000 ) ) ;
#247 = ADVANCED_FACE ( 'NONE', ( #230, #101 ), #192, .T. ) ;
#248 = ORIENTED_EDGE ( 'NONE', *, *, #130, .T. ) ;
#249 = EDGE_CURVE ( 'NONE', #79, #227, #41, .T. ) ;
#250 = DIRECTION ( 'NONE',  ( 1.000000000000000000, 0.000000000000000000, 0.000000000000000000 ) ) ;
#251 = ADVANCED_BREP_SHAPE_REPRESENTATION ( '0973', ( #89, #185 ), #73 ) ;
#252 = PERSON_AND_ORGANIZATION ( #238, #2 ) ;
#253 = VECTOR ( 'NONE', #203, 1000.000000000000000 ) ;
#254 = EDGE_CURVE ( 'NONE', #227, #79, #6, .T. ) ;
#255 = CALENDAR_DATE ( 2023, 13, 2 ) ;
ENDSEC;
END-ISO-10303-21;
