ISO-10303-21;
HEADER;
FILE_DESCRIPTION (( 'STEP AP203' ),
    '1' );
FILE_NAME ('35f0.STEP',
    '2023-02-13T14:37:41',
    ( '' ),
    ( '' ),
    'SwSTEP 2.0',
    'SolidWorks 2019',
    '' );
FILE_SCHEMA (( 'CONFIG_CONTROL_DESIGN' ));
ENDSEC;

DATA;
#1 = CARTESIAN_POINT ( 'NONE',  ( 0.000000000000000000, 0.000000000000000000, 0.000000000000000000 ) ) ;
#2 = LOCAL_TIME ( 15, 37, 41.00000000000000000, #234 ) ;
#3 = SECURITY_CLASSIFICATION_LEVEL ( 'unclassified' ) ;
#4 = DIRECTION ( 'NONE',  ( 0.000000000000000000, 0.000000000000000000, 1.000000000000000000 ) ) ;
#5 = DIRECTION ( 'NONE',  ( 1.000000000000000000, 0.000000000000000000, -0.000000000000000000 ) ) ;
#6 = AXIS2_PLACEMENT_3D ( 'NONE', #32, #237, #20 ) ;
#7 = DIRECTION ( 'NONE',  ( -0.000000000000000000, -0.000000000000000000, -1.000000000000000000 ) ) ;
#8 = ORIENTED_EDGE ( 'NONE', *, *, #28, .F. ) ;
#9 = VECTOR ( 'NONE', #248, 1000.000000000000000 ) ;
#10 = VERTEX_POINT ( 'NONE', #145 ) ;
#11 = ORIENTED_EDGE ( 'NONE', *, *, #61, .F. ) ;
#12 = PERSON_AND_ORGANIZATION ( #174, #162 ) ;
#13 = DIRECTION ( 'NONE',  ( 1.000000000000000000, 0.000000000000000000, 0.000000000000000000 ) ) ;
#14 = APPLICATION_CONTEXT ( 'configuration controlled 3d designs of mechanical parts and assemblies' ) ;
#15 = DIRECTION ( 'NONE',  ( 0.000000000000000000, 0.000000000000000000, 1.000000000000000000 ) ) ;
#16 = DESIGN_CONTEXT ( 'detailed design', #14, 'design' ) ;
#17 = DIRECTION ( 'NONE',  ( -0.000000000000000000, -0.000000000000000000, -1.000000000000000000 ) ) ;
#18 = MECHANICAL_CONTEXT ( 'NONE', #222, 'mechanical' ) ;
#19 = APPROVAL_STATUS ( 'not_yet_approved' ) ;
#20 = DIRECTION ( 'NONE',  ( 1.000000000000000000, 0.000000000000000000, 0.000000000000000000 ) ) ;
#21 = CIRCLE ( 'NONE', #6, 5.000000000000000000 ) ;
#22 = AXIS2_PLACEMENT_3D ( 'NONE', #57, #4, #77 ) ;
#23 = CC_DESIGN_PERSON_AND_ORGANIZATION_ASSIGNMENT ( #129, #110, ( #117 ) ) ;
#24 = CARTESIAN_POINT ( 'NONE',  ( 5.000000000000000000, 6.123233995736766282E-16, 3.000000000000000000 ) ) ;
#25 = DIRECTION ( 'NONE',  ( -1.000000000000000000, 0.000000000000000000, 0.000000000000000000 ) ) ;
#26 = CARTESIAN_POINT ( 'NONE',  ( 5.000000000000000000, 6.123233995736766282E-16, 0.000000000000000000 ) ) ;
#27 = CC_DESIGN_APPROVAL ( #49, ( #99 ) ) ;
#28 = EDGE_CURVE ( 'NONE', #35, #249, #113, .T. ) ;
#29 = DIRECTION ( 'NONE',  ( 1.000000000000000000, 0.000000000000000000, -0.000000000000000000 ) ) ;
#30 = AXIS2_PLACEMENT_3D ( 'NONE', #144, #243, #29 ) ;
#31 = COORDINATED_UNIVERSAL_TIME_OFFSET ( 1, 0, .AHEAD. ) ;
#32 = CARTESIAN_POINT ( 'NONE',  ( 0.000000000000000000, 0.000000000000000000, 0.000000000000000000 ) ) ;
#33 = ORIENTED_EDGE ( 'NONE', *, *, #58, .T. ) ;
#34 = CALENDAR_DATE ( 2023, 13, 2 ) ;
#35 = VERTEX_POINT ( 'NONE', #203 ) ;
#36 = CC_DESIGN_DATE_AND_TIME_ASSIGNMENT ( #43, #210, ( #99 ) ) ;
#37 = APPROVAL_DATE_TIME ( #69, #202 ) ;
#38 = PERSON_AND_ORGANIZATION ( #174, #162 ) ;
#39 = AXIS2_PLACEMENT_3D ( 'NONE', #219, #126, #13 ) ;
#40 = CIRCLE ( 'NONE', #98, 2.500000000000000000 ) ;
#41 = CC_DESIGN_DATE_AND_TIME_ASSIGNMENT ( #104, #171, ( #117 ) ) ;
#42 = LOCAL_TIME ( 15, 37, 41.00000000000000000, #116 ) ;
#43 = DATE_AND_TIME ( #119, #64 ) ;
#44 = APPROVAL_ROLE ( '' ) ;
#45 = PLANE ( 'NONE',  #75 ) ;
#46 = FACE_OUTER_BOUND ( 'NONE', #148, .T. ) ;
#47 = ORIENTED_EDGE ( 'NONE', *, *, #192, .T. ) ;
#48 = EDGE_LOOP ( 'NONE', ( #11, #33, #227, #105 ) ) ;
#49 = APPROVAL ( #19, 'NEURÈENÝ' ) ;
#50 = EDGE_LOOP ( 'NONE', ( #130, #251 ) ) ;
#51 = PRODUCT_DEFINITION_FORMATION_WITH_SPECIFIED_SOURCE ( 'LIBOVOLNÝ', '', #54, .NOT_KNOWN. ) ;
#52 = ORIENTED_EDGE ( 'NONE', *, *, #28, .T. ) ;
#53 = CARTESIAN_POINT ( 'NONE',  ( 5.000000000000000000, 6.123233995736766282E-16, 3.000000000000000000 ) ) ;
#54 = PRODUCT ( '35f0', '35f0', '', ( #18 ) ) ;
#55 = LINE ( 'NONE', #115, #195 ) ;
#56 = DIRECTION ( 'NONE',  ( 0.000000000000000000, 0.000000000000000000, 1.000000000000000000 ) ) ;
#57 = CARTESIAN_POINT ( 'NONE',  ( 0.000000000000000000, 0.000000000000000000, 3.000000000000000000 ) ) ;
#58 = EDGE_CURVE ( 'NONE', #249, #10, #87, .T. ) ;
#59 = DIRECTION ( 'NONE',  ( 0.000000000000000000, 0.000000000000000000, 1.000000000000000000 ) ) ;
#60 = CARTESIAN_POINT ( 'NONE',  ( 0.000000000000000000, 0.000000000000000000, 125.0000000000000000 ) ) ;
#61 = EDGE_CURVE ( 'NONE', #249, #35, #214, .T. ) ;
#62 = ORIENTED_EDGE ( 'NONE', *, *, #81, .F. ) ;
#63 = DIRECTION ( 'NONE',  ( 0.000000000000000000, 0.000000000000000000, 1.000000000000000000 ) ) ;
#64 = LOCAL_TIME ( 15, 37, 41.00000000000000000, #238 ) ;
#65 = EDGE_CURVE ( 'NONE', #247, #84, #21, .T. ) ;
#66 = ORIENTED_EDGE ( 'NONE', *, *, #108, .T. ) ;
#67 = APPROVAL_STATUS ( 'not_yet_approved' ) ;
#68 = ORIENTED_EDGE ( 'NONE', *, *, #65, .T. ) ;
#69 = DATE_AND_TIME ( #89, #111 ) ;
#70 = CARTESIAN_POINT ( 'NONE',  ( 0.000000000000000000, 0.000000000000000000, 125.0000000000000000 ) ) ;
#71 = APPROVAL_ROLE ( '' ) ;
#72 = FACE_OUTER_BOUND ( 'NONE', #164, .T. ) ;
#73 = CARTESIAN_POINT ( 'NONE',  ( 0.000000000000000000, 0.000000000000000000, 3.000000000000000000 ) ) ;
#74 = APPROVAL ( #151, 'NEURÈENÝ' ) ;
#75 = AXIS2_PLACEMENT_3D ( 'NONE', #1, #143, #5 ) ;
#76 = FACE_OUTER_BOUND ( 'NONE', #167, .T. ) ;
#77 = DIRECTION ( 'NONE',  ( 1.000000000000000000, 0.000000000000000000, 0.000000000000000000 ) ) ;
#78 = AXIS2_PLACEMENT_3D ( 'NONE', #169, #63, #127 ) ;
#79 = CYLINDRICAL_SURFACE ( 'NONE', #120, 5.000000000000000000 ) ;
#80 = DIRECTION ( 'NONE',  ( -1.000000000000000000, 0.000000000000000000, 0.000000000000000000 ) ) ;
#81 = EDGE_CURVE ( 'NONE', #207, #10, #160, .T. ) ;
#82 = AXIS2_PLACEMENT_3D ( 'NONE', #60, #159, #97 ) ;
#83 = ORIENTED_EDGE ( 'NONE', *, *, #142, .F. ) ;
#84 = VERTEX_POINT ( 'NONE', #197 ) ;
#85 = VERTEX_POINT ( 'NONE', #172 ) ;
#86 = PERSON_AND_ORGANIZATION ( #174, #162 ) ;
#87 = LINE ( 'NONE', #149, #9 ) ;
#88 = AXIS2_PLACEMENT_3D ( 'NONE', #118, #215, #25 ) ;
#89 = CALENDAR_DATE ( 2023, 13, 2 ) ;
#90 = ADVANCED_FACE ( 'NONE', ( #72 ), #211, .T. ) ;
#91 = CARTESIAN_POINT ( 'NONE',  ( 0.000000000000000000, 0.000000000000000000, 3.000000000000000000 ) ) ;
#92 = AXIS2_PLACEMENT_3D ( 'NONE', #161, #218, #156 ) ;
#93 = DIRECTION ( 'NONE',  ( 0.000000000000000000, 0.000000000000000000, 1.000000000000000000 ) ) ;
#94 = CARTESIAN_POINT ( 'NONE',  ( 0.000000000000000000, 0.000000000000000000, 3.000000000000000000 ) ) ;
#95 = DIRECTION ( 'NONE',  ( -0.000000000000000000, -0.000000000000000000, -1.000000000000000000 ) ) ;
#96 = DIRECTION ( 'NONE',  ( 0.000000000000000000, 0.000000000000000000, 1.000000000000000000 ) ) ;
#97 = DIRECTION ( 'NONE',  ( -1.000000000000000000, 0.000000000000000000, 0.000000000000000000 ) ) ;
#98 = AXIS2_PLACEMENT_3D ( 'NONE', #94, #59, #177 ) ;
#99 = SECURITY_CLASSIFICATION ( '', '', #3 ) ;
#100 = EDGE_CURVE ( 'NONE', #35, #207, #55, .T. ) ;
#101 = AXIS2_PLACEMENT_3D ( 'NONE', #141, #96, #245 ) ;
#102 = ORIENTED_EDGE ( 'NONE', *, *, #61, .T. ) ;
#103 = AXIS2_PLACEMENT_3D ( 'NONE', #121, #199, #180 ) ;
#104 = DATE_AND_TIME ( #34, #236 ) ;
#105 = ORIENTED_EDGE ( 'NONE', *, *, #100, .F. ) ;
#106 = MANIFOLD_SOLID_BREP ( 'Pøidat vysunutím3', #194 ) ;
#107 = APPLICATION_PROTOCOL_DEFINITION ( 'international standard', 'config_control_design', 1994, #222 ) ;
#108 = EDGE_CURVE ( 'NONE', #131, #247, #232, .T. ) ;
#109 = ORIENTED_EDGE ( 'NONE', *, *, #196, .T. ) ;
#110 = PERSON_AND_ORGANIZATION_ROLE ( 'creator' ) ;
#111 = LOCAL_TIME ( 15, 37, 41.00000000000000000, #31 ) ;
#112 = APPROVAL_DATE_TIME ( #139, #49 ) ;
#113 = CIRCLE ( 'NONE', #39, 2.500000000000000000 ) ;
#114 = CC_DESIGN_APPROVAL ( #202, ( #117 ) ) ;
#115 = CARTESIAN_POINT ( 'NONE',  ( -2.500000000000000000, 0.000000000000000000, 125.0000000000000000 ) ) ;
#116 = COORDINATED_UNIVERSAL_TIME_OFFSET ( 1, 0, .AHEAD. ) ;
#117 = PRODUCT_DEFINITION ( 'NEZNÁMÝ', '', #51, #16 ) ;
#118 = CARTESIAN_POINT ( 'NONE',  ( 0.000000000000000000, 0.000000000000000000, 3.000000000000000000 ) ) ;
#119 = CALENDAR_DATE ( 2023, 13, 2 ) ;
#120 = AXIS2_PLACEMENT_3D ( 'NONE', #73, #95, #80 ) ;
#121 = CARTESIAN_POINT ( 'NONE',  ( 0.000000000000000000, 0.000000000000000000, 125.0000000000000000 ) ) ;
#122 = CC_DESIGN_SECURITY_CLASSIFICATION ( #99, ( #51 ) ) ;
#123 =( LENGTH_UNIT ( ) NAMED_UNIT ( * ) SI_UNIT ( .MILLI., .METRE. ) );
#124 = CYLINDRICAL_SURFACE ( 'NONE', #103, 2.500000000000000000 ) ;
#125 = DATE_AND_TIME ( #187, #2 ) ;
#126 = DIRECTION ( 'NONE',  ( 0.000000000000000000, 0.000000000000000000, 1.000000000000000000 ) ) ;
#127 = DIRECTION ( 'NONE',  ( 1.000000000000000000, 0.000000000000000000, 0.000000000000000000 ) ) ;
#128 = EDGE_LOOP ( 'NONE', ( #62, #83 ) ) ;
#129 = PERSON_AND_ORGANIZATION ( #174, #162 ) ;
#130 = ORIENTED_EDGE ( 'NONE', *, *, #192, .F. ) ;
#131 = VERTEX_POINT ( 'NONE', #24 ) ;
#132 = PERSON_AND_ORGANIZATION ( #174, #162 ) ;
#133 = DIRECTION ( 'NONE',  ( 1.000000000000000000, 0.000000000000000000, 0.000000000000000000 ) ) ;
#134 = APPROVAL_PERSON_ORGANIZATION ( #240, #49, #44 ) ;
#135 = CALENDAR_DATE ( 2023, 13, 2 ) ;
#136 = AXIS2_PLACEMENT_3D ( 'NONE', #91, #56, #133 ) ;
#137 = CC_DESIGN_PERSON_AND_ORGANIZATION_ASSIGNMENT ( #38, #173, ( #99 ) ) ;
#138 = CYLINDRICAL_SURFACE ( 'NONE', #82, 2.500000000000000000 ) ;
#139 = DATE_AND_TIME ( #135, #42 ) ;
#140 = PLANE ( 'NONE',  #30 ) ;
#141 = CARTESIAN_POINT ( 'NONE',  ( 0.000000000000000000, 0.000000000000000000, 3.000000000000000000 ) ) ;
#142 = EDGE_CURVE ( 'NONE', #10, #207, #40, .T. ) ;
#143 = DIRECTION ( 'NONE',  ( 0.000000000000000000, 0.000000000000000000, 1.000000000000000000 ) ) ;
#144 = CARTESIAN_POINT ( 'NONE',  ( 0.000000000000000000, 0.000000000000000000, 3.000000000000000000 ) ) ;
#145 = CARTESIAN_POINT ( 'NONE',  ( 2.500000000000000000, 3.061616997868382648E-16, 3.000000000000000000 ) ) ;
#146 = PRODUCT_RELATED_PRODUCT_CATEGORY ( 'detail', '', ( #54 ) ) ;
#147 = CIRCLE ( 'NONE', #92, 5.000000000000000000 ) ;
#148 = EDGE_LOOP ( 'NONE', ( #188, #250, #109, #47 ) ) ;
#149 = CARTESIAN_POINT ( 'NONE',  ( 2.500000000000000000, 3.061616997868382648E-16, 125.0000000000000000 ) ) ;
#150 = VECTOR ( 'NONE', #7, 1000.000000000000000 ) ;
#151 = APPROVAL_STATUS ( 'not_yet_approved' ) ;
#152 = APPROVAL_PERSON_ORGANIZATION ( #253, #74, #71 ) ;
#153 = DIRECTION ( 'NONE',  ( 1.000000000000000000, 0.000000000000000000, 0.000000000000000000 ) ) ;
#154 =( NAMED_UNIT ( * ) PLANE_ANGLE_UNIT ( ) SI_UNIT ( $, .RADIAN. ) );
#155 = ADVANCED_FACE ( 'NONE', ( #158, #254 ), #140, .T. ) ;
#156 = DIRECTION ( 'NONE',  ( 1.000000000000000000, 0.000000000000000000, 0.000000000000000000 ) ) ;
#157 = VECTOR ( 'NONE', #239, 1000.000000000000000 ) ;
#158 = FACE_BOUND ( 'NONE', #128, .T. ) ;
#159 = DIRECTION ( 'NONE',  ( -0.000000000000000000, -0.000000000000000000, -1.000000000000000000 ) ) ;
#160 = CIRCLE ( 'NONE', #136, 2.500000000000000000 ) ;
#161 = CARTESIAN_POINT ( 'NONE',  ( 0.000000000000000000, 0.000000000000000000, 0.000000000000000000 ) ) ;
#162 = ORGANIZATION ( 'NEURÈENÝ', 'NEURÈENÝ', '' ) ;
#163 = CARTESIAN_POINT ( 'NONE',  ( 0.000000000000000000, 0.000000000000000000, 0.000000000000000000 ) ) ;
#164 = EDGE_LOOP ( 'NONE', ( #52, #102 ) ) ;
#165 = ADVANCED_FACE ( 'NONE', ( #46 ), #79, .T. ) ;
#166 = EDGE_LOOP ( 'NONE', ( #224, #185 ) ) ;
#167 = EDGE_LOOP ( 'NONE', ( #223, #8, #206, #190 ) ) ;
#168 = PERSON_AND_ORGANIZATION_ROLE ( 'creator' ) ;
#169 = CARTESIAN_POINT ( 'NONE',  ( 0.000000000000000000, 0.000000000000000000, 125.0000000000000000 ) ) ;
#170 = APPLICATION_PROTOCOL_DEFINITION ( 'international standard', 'config_control_design', 1994, #14 ) ;
#171 = DATE_TIME_ROLE ( 'creation_date' ) ;
#172 = CARTESIAN_POINT ( 'NONE',  ( -5.000000000000000000, 0.000000000000000000, 3.000000000000000000 ) ) ;
#173 = PERSON_AND_ORGANIZATION_ROLE ( 'classification_officer' ) ;
#174 = PERSON ( 'NEURÈENÝ', 'NEURÈENÝ', 'NEURÈENÝ', ('NEURÈENÝ'), ('NEURÈENÝ'), ('NEURÈENÝ') ) ;
#175 = EDGE_CURVE ( 'NONE', #131, #85, #233, .T. ) ;
#176 = DIRECTION ( 'NONE',  ( 1.000000000000000000, 0.000000000000000000, -0.000000000000000000 ) ) ;
#177 = DIRECTION ( 'NONE',  ( 1.000000000000000000, 0.000000000000000000, 0.000000000000000000 ) ) ;
#178 = PERSON_AND_ORGANIZATION ( #174, #162 ) ;
#179 = FACE_OUTER_BOUND ( 'NONE', #50, .T. ) ;
#180 = DIRECTION ( 'NONE',  ( -1.000000000000000000, 0.000000000000000000, 0.000000000000000000 ) ) ;
#181 = CYLINDRICAL_SURFACE ( 'NONE', #88, 5.000000000000000000 ) ;
#182 = AXIS2_PLACEMENT_3D ( 'NONE', #70, #93, #176 ) ;
#183 = CC_DESIGN_PERSON_AND_ORGANIZATION_ASSIGNMENT ( #178, #212, ( #51 ) ) ;
#184 = ADVANCED_BREP_SHAPE_REPRESENTATION ( '35f0', ( #106, #220 ), #193 ) ;
#185 = ORIENTED_EDGE ( 'NONE', *, *, #175, .T. ) ;
#186 = ORIENTED_EDGE ( 'NONE', *, *, #196, .F. ) ;
#187 = CALENDAR_DATE ( 2023, 13, 2 ) ;
#188 = ORIENTED_EDGE ( 'NONE', *, *, #108, .F. ) ;
#189 = PERSON_AND_ORGANIZATION_ROLE ( 'design_owner' ) ;
#190 = ORIENTED_EDGE ( 'NONE', *, *, #81, .T. ) ;
#191 = COORDINATED_UNIVERSAL_TIME_OFFSET ( 1, 0, .AHEAD. ) ;
#192 = EDGE_CURVE ( 'NONE', #84, #247, #147, .T. ) ;
#193 =( GEOMETRIC_REPRESENTATION_CONTEXT ( 3 ) GLOBAL_UNCERTAINTY_ASSIGNED_CONTEXT ( ( #230 ) ) GLOBAL_UNIT_ASSIGNED_CONTEXT ( ( #123, #154, #231 ) ) REPRESENTATION_CONTEXT ( 'NONE', 'WORKASPACE' ) );
#194 = CLOSED_SHELL ( 'NONE', ( #244, #217, #165, #155, #221, #208, #90 ) ) ;
#195 = VECTOR ( 'NONE', #17, 1000.000000000000000 ) ;
#196 = EDGE_CURVE ( 'NONE', #85, #84, #201, .T. ) ;
#197 = CARTESIAN_POINT ( 'NONE',  ( -5.000000000000000000, 0.000000000000000000, 0.000000000000000000 ) ) ;
#198 = CARTESIAN_POINT ( 'NONE',  ( -5.000000000000000000, 0.000000000000000000, 3.000000000000000000 ) ) ;
#199 = DIRECTION ( 'NONE',  ( -0.000000000000000000, -0.000000000000000000, -1.000000000000000000 ) ) ;
#200 = CC_DESIGN_APPROVAL ( #74, ( #51 ) ) ;
#201 = LINE ( 'NONE', #198, #157 ) ;
#202 = APPROVAL ( #67, 'NEURÈENÝ' ) ;
#203 = CARTESIAN_POINT ( 'NONE',  ( -2.500000000000000000, 0.000000000000000000, 125.0000000000000000 ) ) ;
#204 = ORIENTED_EDGE ( 'NONE', *, *, #175, .F. ) ;
#205 = EDGE_CURVE ( 'NONE', #85, #131, #209, .T. ) ;
#206 = ORIENTED_EDGE ( 'NONE', *, *, #100, .T. ) ;
#207 = VERTEX_POINT ( 'NONE', #241 ) ;
#208 = ADVANCED_FACE ( 'NONE', ( #76 ), #138, .T. ) ;
#209 = CIRCLE ( 'NONE', #22, 5.000000000000000000 ) ;
#210 = DATE_TIME_ROLE ( 'classification_date' ) ;
#211 = PLANE ( 'NONE',  #182 ) ;
#212 = PERSON_AND_ORGANIZATION_ROLE ( 'design_supplier' ) ;
#213 = FACE_OUTER_BOUND ( 'NONE', #225, .T. ) ;
#214 = CIRCLE ( 'NONE', #78, 2.500000000000000000 ) ;
#215 = DIRECTION ( 'NONE',  ( -0.000000000000000000, -0.000000000000000000, -1.000000000000000000 ) ) ;
#216 = FACE_OUTER_BOUND ( 'NONE', #48, .T. ) ;
#217 = ADVANCED_FACE ( 'NONE', ( #213 ), #181, .T. ) ;
#218 = DIRECTION ( 'NONE',  ( 0.000000000000000000, 0.000000000000000000, 1.000000000000000000 ) ) ;
#219 = CARTESIAN_POINT ( 'NONE',  ( 0.000000000000000000, 0.000000000000000000, 125.0000000000000000 ) ) ;
#220 = AXIS2_PLACEMENT_3D ( 'NONE', #163, #15, #153 ) ;
#221 = ADVANCED_FACE ( 'NONE', ( #179 ), #45, .F. ) ;
#222 = APPLICATION_CONTEXT ( 'configuration controlled 3d designs of mechanical parts and assemblies' ) ;
#223 = ORIENTED_EDGE ( 'NONE', *, *, #58, .F. ) ;
#224 = ORIENTED_EDGE ( 'NONE', *, *, #205, .T. ) ;
#225 = EDGE_LOOP ( 'NONE', ( #204, #66, #68, #186 ) ) ;
#226 = APPROVAL_PERSON_ORGANIZATION ( #132, #202, #252 ) ;
#227 = ORIENTED_EDGE ( 'NONE', *, *, #142, .T. ) ;
#228 = CC_DESIGN_PERSON_AND_ORGANIZATION_ASSIGNMENT ( #12, #168, ( #51 ) ) ;
#229 = PRODUCT_DEFINITION_SHAPE ( 'NONE', 'NONE',  #117 ) ;
#230 = UNCERTAINTY_MEASURE_WITH_UNIT (LENGTH_MEASURE( 1.000000000000000082E-05 ), #123, 'distance_accuracy_value', 'NONE');
#231 =( NAMED_UNIT ( * ) SI_UNIT ( $, .STERADIAN. ) SOLID_ANGLE_UNIT ( ) );
#232 = LINE ( 'NONE', #53, #150 ) ;
#233 = CIRCLE ( 'NONE', #101, 5.000000000000000000 ) ;
#234 = COORDINATED_UNIVERSAL_TIME_OFFSET ( 1, 0, .AHEAD. ) ;
#235 = CC_DESIGN_PERSON_AND_ORGANIZATION_ASSIGNMENT ( #86, #189, ( #54 ) ) ;
#236 = LOCAL_TIME ( 15, 37, 41.00000000000000000, #191 ) ;
#237 = DIRECTION ( 'NONE',  ( 0.000000000000000000, 0.000000000000000000, 1.000000000000000000 ) ) ;
#238 = COORDINATED_UNIVERSAL_TIME_OFFSET ( 1, 0, .AHEAD. ) ;
#239 = DIRECTION ( 'NONE',  ( -0.000000000000000000, -0.000000000000000000, -1.000000000000000000 ) ) ;
#240 = PERSON_AND_ORGANIZATION ( #174, #162 ) ;
#241 = CARTESIAN_POINT ( 'NONE',  ( -2.500000000000000000, 0.000000000000000000, 3.000000000000000000 ) ) ;
#242 = CARTESIAN_POINT ( 'NONE',  ( 2.500000000000000000, 3.061616997868382648E-16, 125.0000000000000000 ) ) ;
#243 = DIRECTION ( 'NONE',  ( 0.000000000000000000, 0.000000000000000000, 1.000000000000000000 ) ) ;
#244 = ADVANCED_FACE ( 'NONE', ( #216 ), #124, .T. ) ;
#245 = DIRECTION ( 'NONE',  ( 1.000000000000000000, 0.000000000000000000, 0.000000000000000000 ) ) ;
#246 = APPROVAL_DATE_TIME ( #125, #74 ) ;
#247 = VERTEX_POINT ( 'NONE', #26 ) ;
#248 = DIRECTION ( 'NONE',  ( -0.000000000000000000, -0.000000000000000000, -1.000000000000000000 ) ) ;
#249 = VERTEX_POINT ( 'NONE', #242 ) ;
#250 = ORIENTED_EDGE ( 'NONE', *, *, #205, .F. ) ;
#251 = ORIENTED_EDGE ( 'NONE', *, *, #65, .F. ) ;
#252 = APPROVAL_ROLE ( '' ) ;
#253 = PERSON_AND_ORGANIZATION ( #174, #162 ) ;
#254 = FACE_OUTER_BOUND ( 'NONE', #166, .T. ) ;
#255 = SHAPE_DEFINITION_REPRESENTATION ( #229, #184 ) ;
ENDSEC;
END-ISO-10303-21;
