ISO-10303-21;
HEADER;
FILE_DESCRIPTION (( 'STEP AP203' ),
    '1' );
FILE_NAME ('8451.STEP',
    '2023-02-13T10:19:10',
    ( '' ),
    ( '' ),
    'SwSTEP 2.0',
    'SolidWorks 2019',
    '' );
FILE_SCHEMA (( 'CONFIG_CONTROL_DESIGN' ));
ENDSEC;

DATA;
#1 = DIRECTION ( 'NONE',  ( 0.000000000000000000, 0.000000000000000000, 1.000000000000000000 ) ) ;
#2 = VERTEX_POINT ( 'NONE', #172 ) ;
#3 = CC_DESIGN_PERSON_AND_ORGANIZATION_ASSIGNMENT ( #165, #170, ( #122 ) ) ;
#4 = DIRECTION ( 'NONE',  ( -0.000000000000000000, -0.000000000000000000, -1.000000000000000000 ) ) ;
#5 = DIRECTION ( 'NONE',  ( 0.000000000000000000, 0.000000000000000000, 1.000000000000000000 ) ) ;
#6 = VERTEX_POINT ( 'NONE', #231 ) ;
#7 = DATE_TIME_ROLE ( 'classification_date' ) ;
#8 = CALENDAR_DATE ( 2023, 13, 2 ) ;
#9 = AXIS2_PLACEMENT_3D ( 'NONE', #93, #76, #97 ) ;
#10 = ORIENTED_EDGE ( 'NONE', *, *, #72, .T. ) ;
#11 = AXIS2_PLACEMENT_3D ( 'NONE', #185, #142, #223 ) ;
#12 = CARTESIAN_POINT ( 'NONE',  ( 0.000000000000000000, 0.000000000000000000, 800.0000000000000000 ) ) ;
#13 = LOCAL_TIME ( 11, 19, 10.00000000000000000, #136 ) ;
#14 =( NAMED_UNIT ( * ) PLANE_ANGLE_UNIT ( ) SI_UNIT ( $, .RADIAN. ) );
#15 = AXIS2_PLACEMENT_3D ( 'NONE', #65, #5, #25 ) ;
#16 = CARTESIAN_POINT ( 'NONE',  ( -10.00000000000000000, 0.000000000000000000, 7.000000000000000000 ) ) ;
#17 = CC_DESIGN_SECURITY_CLASSIFICATION ( #208, ( #57 ) ) ;
#18 = APPROVAL ( #105, 'NEURÈENÝ' ) ;
#19 = APPROVAL_ROLE ( '' ) ;
#20 = AXIS2_PLACEMENT_3D ( 'NONE', #42, #87, #102 ) ;
#21 = CARTESIAN_POINT ( 'NONE',  ( -6.000000000000000888, 0.000000000000000000, 800.0000000000000000 ) ) ;
#22 = PERSON_AND_ORGANIZATION_ROLE ( 'design_owner' ) ;
#23 = ORIENTED_EDGE ( 'NONE', *, *, #249, .F. ) ;
#24 = APPLICATION_CONTEXT ( 'configuration controlled 3d designs of mechanical parts and assemblies' ) ;
#25 = DIRECTION ( 'NONE',  ( 1.000000000000000000, 0.000000000000000000, 0.000000000000000000 ) ) ;
#26 = ADVANCED_FACE ( 'NONE', ( #74, #51 ), #69, .T. ) ;
#27 = ORIENTED_EDGE ( 'NONE', *, *, #192, .F. ) ;
#28 = DIRECTION ( 'NONE',  ( -0.000000000000000000, -0.000000000000000000, -1.000000000000000000 ) ) ;
#29 = DIRECTION ( 'NONE',  ( -1.000000000000000000, 0.000000000000000000, 0.000000000000000000 ) ) ;
#30 = ORIENTED_EDGE ( 'NONE', *, *, #34, .T. ) ;
#31 = PERSON_AND_ORGANIZATION ( #86, #229 ) ;
#32 = AXIS2_PLACEMENT_3D ( 'NONE', #55, #181, #252 ) ;
#33 = EDGE_LOOP ( 'NONE', ( #143, #206, #241, #125 ) ) ;
#34 = EDGE_CURVE ( 'NONE', #176, #2, #121, .T. ) ;
#35 = PERSON_AND_ORGANIZATION ( #86, #229 ) ;
#36 = APPROVAL_STATUS ( 'not_yet_approved' ) ;
#37 = MANIFOLD_SOLID_BREP ( 'Pøidat vysunutím3', #54 ) ;
#38 = DIRECTION ( 'NONE',  ( 0.000000000000000000, 0.000000000000000000, 1.000000000000000000 ) ) ;
#39 = CARTESIAN_POINT ( 'NONE',  ( -6.000000000000000888, 0.000000000000000000, 7.000000000000000000 ) ) ;
#40 = APPLICATION_CONTEXT ( 'configuration controlled 3d designs of mechanical parts and assemblies' ) ;
#41 = DIRECTION ( 'NONE',  ( 1.000000000000000000, 0.000000000000000000, 0.000000000000000000 ) ) ;
#42 = CARTESIAN_POINT ( 'NONE',  ( 0.000000000000000000, 0.000000000000000000, 7.000000000000000000 ) ) ;
#43 = DATE_AND_TIME ( #47, #115 ) ;
#44 = EDGE_LOOP ( 'NONE', ( #109, #147 ) ) ;
#45 = ORIENTED_EDGE ( 'NONE', *, *, #210, .F. ) ;
#46 = FACE_OUTER_BOUND ( 'NONE', #145, .T. ) ;
#47 = CALENDAR_DATE ( 2023, 13, 2 ) ;
#48 = SECURITY_CLASSIFICATION_LEVEL ( 'unclassified' ) ;
#49 = APPROVAL_PERSON_ORGANIZATION ( #106, #18, #209 ) ;
#50 = APPROVAL ( #36, 'NEURÈENÝ' ) ;
#51 = FACE_OUTER_BOUND ( 'NONE', #44, .T. ) ;
#52 = ORIENTED_EDGE ( 'NONE', *, *, #207, .T. ) ;
#53 = DIRECTION ( 'NONE',  ( 1.000000000000000000, 0.000000000000000000, 0.000000000000000000 ) ) ;
#54 = CLOSED_SHELL ( 'NONE', ( #66, #90, #95, #26, #239, #141, #117 ) ) ;
#55 = CARTESIAN_POINT ( 'NONE',  ( 0.000000000000000000, 0.000000000000000000, 0.000000000000000000 ) ) ;
#56 = PRODUCT ( '8451', '8451', '', ( #237 ) ) ;
#57 = PRODUCT_DEFINITION_FORMATION_WITH_SPECIFIED_SOURCE ( 'LIBOVOLNÝ', '', #56, .NOT_KNOWN. ) ;
#58 = LINE ( 'NONE', #21, #103 ) ;
#59 = PERSON_AND_ORGANIZATION_ROLE ( 'classification_officer' ) ;
#60 = ORIENTED_EDGE ( 'NONE', *, *, #113, .F. ) ;
#61 = CARTESIAN_POINT ( 'NONE',  ( 0.000000000000000000, 0.000000000000000000, 7.000000000000000000 ) ) ;
#62 = ORIENTED_EDGE ( 'NONE', *, *, #207, .F. ) ;
#63 = CYLINDRICAL_SURFACE ( 'NONE', #20, 10.00000000000000000 ) ;
#64 = CYLINDRICAL_SURFACE ( 'NONE', #227, 6.000000000000000888 ) ;
#65 = CARTESIAN_POINT ( 'NONE',  ( 0.000000000000000000, 0.000000000000000000, 800.0000000000000000 ) ) ;
#66 = ADVANCED_FACE ( 'NONE', ( #254 ), #79, .T. ) ;
#67 = ORIENTED_EDGE ( 'NONE', *, *, #224, .T. ) ;
#68 = AXIS2_PLACEMENT_3D ( 'NONE', #12, #133, #217 ) ;
#69 = PLANE ( 'NONE',  #107 ) ;
#70 = DATE_AND_TIME ( #128, #183 ) ;
#71 = CC_DESIGN_APPROVAL ( #104, ( #208 ) ) ;
#72 = EDGE_CURVE ( 'NONE', #221, #6, #211, .T. ) ;
#73 = AXIS2_PLACEMENT_3D ( 'NONE', #198, #28, #186 ) ;
#74 = FACE_BOUND ( 'NONE', #173, .T. ) ;
#75 = CARTESIAN_POINT ( 'NONE',  ( 6.000000000000000888, 7.347880794884120722E-16, 800.0000000000000000 ) ) ;
#76 = DIRECTION ( 'NONE',  ( 0.000000000000000000, 0.000000000000000000, 1.000000000000000000 ) ) ;
#77 = CARTESIAN_POINT ( 'NONE',  ( 0.000000000000000000, 0.000000000000000000, 7.000000000000000000 ) ) ;
#78 = PLANE ( 'NONE',  #212 ) ;
#79 = CYLINDRICAL_SURFACE ( 'NONE', #171, 6.000000000000000888 ) ;
#80 = CC_DESIGN_DATE_AND_TIME_ASSIGNMENT ( #230, #152, ( #122 ) ) ;
#81 = APPROVAL_DATE_TIME ( #149, #18 ) ;
#82 = VERTEX_POINT ( 'NONE', #161 ) ;
#83 = CIRCLE ( 'NONE', #214, 6.000000000000000888 ) ;
#84 = APPLICATION_PROTOCOL_DEFINITION ( 'international standard', 'config_control_design', 1994, #40 ) ;
#85 = CARTESIAN_POINT ( 'NONE',  ( 0.000000000000000000, 0.000000000000000000, 800.0000000000000000 ) ) ;
#86 = PERSON ( 'NEURÈENÝ', 'NEURÈENÝ', 'NEURÈENÝ', ('NEURÈENÝ'), ('NEURÈENÝ'), ('NEURÈENÝ') ) ;
#87 = DIRECTION ( 'NONE',  ( -0.000000000000000000, -0.000000000000000000, -1.000000000000000000 ) ) ;
#88 = CARTESIAN_POINT ( 'NONE',  ( 0.000000000000000000, 0.000000000000000000, 0.000000000000000000 ) ) ;
#89 = EDGE_LOOP ( 'NONE', ( #169, #10 ) ) ;
#90 = ADVANCED_FACE ( 'NONE', ( #200 ), #63, .T. ) ;
#91 = COORDINATED_UNIVERSAL_TIME_OFFSET ( 1, 0, .AHEAD. ) ;
#92 = APPROVAL_PERSON_ORGANIZATION ( #146, #104, #220 ) ;
#93 = CARTESIAN_POINT ( 'NONE',  ( 0.000000000000000000, 0.000000000000000000, 7.000000000000000000 ) ) ;
#94 = CARTESIAN_POINT ( 'NONE',  ( 0.000000000000000000, 0.000000000000000000, 7.000000000000000000 ) ) ;
#95 = ADVANCED_FACE ( 'NONE', ( #240 ), #168, .T. ) ;
#96 = AXIS2_PLACEMENT_3D ( 'NONE', #94, #213, #195 ) ;
#97 = DIRECTION ( 'NONE',  ( 1.000000000000000000, 0.000000000000000000, 0.000000000000000000 ) ) ;
#98 = COORDINATED_UNIVERSAL_TIME_OFFSET ( 1, 0, .AHEAD. ) ;
#99 = DIRECTION ( 'NONE',  ( 0.000000000000000000, 0.000000000000000000, 1.000000000000000000 ) ) ;
#100 = FACE_OUTER_BOUND ( 'NONE', #89, .T. ) ;
#101 = EDGE_LOOP ( 'NONE', ( #153, #60, #52, #140 ) ) ;
#102 = DIRECTION ( 'NONE',  ( -1.000000000000000000, 0.000000000000000000, 0.000000000000000000 ) ) ;
#103 = VECTOR ( 'NONE', #4, 1000.000000000000000 ) ;
#104 = APPROVAL ( #138, 'NEURÈENÝ' ) ;
#105 = APPROVAL_STATUS ( 'not_yet_approved' ) ;
#106 = PERSON_AND_ORGANIZATION ( #86, #229 ) ;
#107 = AXIS2_PLACEMENT_3D ( 'NONE', #150, #248, #203 ) ;
#108 = PERSON_AND_ORGANIZATION ( #86, #229 ) ;
#109 = ORIENTED_EDGE ( 'NONE', *, *, #113, .T. ) ;
#110 = EDGE_CURVE ( 'NONE', #6, #166, #58, .T. ) ;
#111 = ADVANCED_BREP_SHAPE_REPRESENTATION ( '8451', ( #37, #144 ), #178 ) ;
#112 = APPROVAL_PERSON_ORGANIZATION ( #31, #50, #19 ) ;
#113 = EDGE_CURVE ( 'NONE', #177, #176, #130, .T. ) ;
#114 = CARTESIAN_POINT ( 'NONE',  ( -10.00000000000000000, 0.000000000000000000, 0.000000000000000000 ) ) ;
#115 = LOCAL_TIME ( 11, 19, 10.00000000000000000, #175 ) ;
#116 = DIRECTION ( 'NONE',  ( 0.000000000000000000, 0.000000000000000000, 1.000000000000000000 ) ) ;
#117 = ADVANCED_FACE ( 'NONE', ( #100 ), #242, .T. ) ;
#118 = CALENDAR_DATE ( 2023, 13, 2 ) ;
#119 = ORIENTED_EDGE ( 'NONE', *, *, #158, .F. ) ;
#120 = LOCAL_TIME ( 11, 19, 10.00000000000000000, #98 ) ;
#121 = LINE ( 'NONE', #244, #187 ) ;
#122 = PRODUCT_DEFINITION ( 'NEZNÁMÝ', '', #57, #253 ) ;
#123 = CARTESIAN_POINT ( 'NONE',  ( 0.000000000000000000, 0.000000000000000000, 800.0000000000000000 ) ) ;
#124 = CARTESIAN_POINT ( 'NONE',  ( 6.000000000000000888, 7.347880794884120722E-16, 800.0000000000000000 ) ) ;
#125 = ORIENTED_EDGE ( 'NONE', *, *, #110, .F. ) ;
#126 = CC_DESIGN_APPROVAL ( #50, ( #122 ) ) ;
#127 = APPROVAL_DATE_TIME ( #43, #104 ) ;
#128 = CALENDAR_DATE ( 2023, 13, 2 ) ;
#129 = ORIENTED_EDGE ( 'NONE', *, *, #251, .T. ) ;
#130 = CIRCLE ( 'NONE', #134, 10.00000000000000000 ) ;
#131 = DIRECTION ( 'NONE',  ( 0.000000000000000000, 0.000000000000000000, 1.000000000000000000 ) ) ;
#132 =( LENGTH_UNIT ( ) NAMED_UNIT ( * ) SI_UNIT ( .MILLI., .METRE. ) );
#133 = DIRECTION ( 'NONE',  ( 0.000000000000000000, 0.000000000000000000, 1.000000000000000000 ) ) ;
#134 = AXIS2_PLACEMENT_3D ( 'NONE', #61, #99, #139 ) ;
#135 = CIRCLE ( 'NONE', #96, 10.00000000000000000 ) ;
#136 = COORDINATED_UNIVERSAL_TIME_OFFSET ( 1, 0, .AHEAD. ) ;
#137 = PRODUCT_RELATED_PRODUCT_CATEGORY ( 'detail', '', ( #56 ) ) ;
#138 = APPROVAL_STATUS ( 'not_yet_approved' ) ;
#139 = DIRECTION ( 'NONE',  ( 1.000000000000000000, 0.000000000000000000, 0.000000000000000000 ) ) ;
#140 = ORIENTED_EDGE ( 'NONE', *, *, #234, .T. ) ;
#141 = ADVANCED_FACE ( 'NONE', ( #46 ), #64, .T. ) ;
#142 = DIRECTION ( 'NONE',  ( 0.000000000000000000, 0.000000000000000000, 1.000000000000000000 ) ) ;
#143 = ORIENTED_EDGE ( 'NONE', *, *, #72, .F. ) ;
#144 = AXIS2_PLACEMENT_3D ( 'NONE', #88, #1, #182 ) ;
#145 = EDGE_LOOP ( 'NONE', ( #119, #27, #238, #67 ) ) ;
#146 = PERSON_AND_ORGANIZATION ( #86, #229 ) ;
#147 = ORIENTED_EDGE ( 'NONE', *, *, #249, .T. ) ;
#148 = CIRCLE ( 'NONE', #68, 6.000000000000000888 ) ;
#149 = DATE_AND_TIME ( #8, #13 ) ;
#150 = CARTESIAN_POINT ( 'NONE',  ( 0.000000000000000000, 0.000000000000000000, 7.000000000000000000 ) ) ;
#151 = LOCAL_TIME ( 11, 19, 10.00000000000000000, #91 ) ;
#152 = DATE_TIME_ROLE ( 'creation_date' ) ;
#153 = ORIENTED_EDGE ( 'NONE', *, *, #34, .F. ) ;
#154 = CIRCLE ( 'NONE', #9, 6.000000000000000888 ) ;
#155 = CIRCLE ( 'NONE', #32, 10.00000000000000000 ) ;
#156 = FACE_OUTER_BOUND ( 'NONE', #250, .T. ) ;
#157 = VECTOR ( 'NONE', #226, 1000.000000000000000 ) ;
#158 = EDGE_CURVE ( 'NONE', #221, #82, #246, .T. ) ;
#159 = CARTESIAN_POINT ( 'NONE',  ( 10.00000000000000000, 1.224646799147353256E-15, 7.000000000000000000 ) ) ;
#160 = UNCERTAINTY_MEASURE_WITH_UNIT (LENGTH_MEASURE( 1.000000000000000082E-05 ), #132, 'distance_accuracy_value', 'NONE');
#161 = CARTESIAN_POINT ( 'NONE',  ( 6.000000000000000888, 7.347880794884120722E-16, 7.000000000000000000 ) ) ;
#162 = VECTOR ( 'NONE', #215, 1000.000000000000000 ) ;
#163 = PERSON_AND_ORGANIZATION ( #86, #229 ) ;
#164 = VERTEX_POINT ( 'NONE', #114 ) ;
#165 = PERSON_AND_ORGANIZATION ( #86, #229 ) ;
#166 = VERTEX_POINT ( 'NONE', #39 ) ;
#167 = DIRECTION ( 'NONE',  ( -0.000000000000000000, -0.000000000000000000, -1.000000000000000000 ) ) ;
#168 = CYLINDRICAL_SURFACE ( 'NONE', #73, 10.00000000000000000 ) ;
#169 = ORIENTED_EDGE ( 'NONE', *, *, #192, .T. ) ;
#170 = PERSON_AND_ORGANIZATION_ROLE ( 'creator' ) ;
#171 = AXIS2_PLACEMENT_3D ( 'NONE', #85, #167, #218 ) ;
#172 = CARTESIAN_POINT ( 'NONE',  ( 10.00000000000000000, 1.224646799147353256E-15, 0.000000000000000000 ) ) ;
#173 = EDGE_LOOP ( 'NONE', ( #202, #45 ) ) ;
#174 = CIRCLE ( 'NONE', #243, 10.00000000000000000 ) ;
#175 = COORDINATED_UNIVERSAL_TIME_OFFSET ( 1, 0, .AHEAD. ) ;
#176 = VERTEX_POINT ( 'NONE', #159 ) ;
#177 = VERTEX_POINT ( 'NONE', #16 ) ;
#178 =( GEOMETRIC_REPRESENTATION_CONTEXT ( 3 ) GLOBAL_UNCERTAINTY_ASSIGNED_CONTEXT ( ( #160 ) ) GLOBAL_UNIT_ASSIGNED_CONTEXT ( ( #132, #14, #235 ) ) REPRESENTATION_CONTEXT ( 'NONE', 'WORKASPACE' ) );
#179 = LINE ( 'NONE', #196, #162 ) ;
#180 = CC_DESIGN_APPROVAL ( #18, ( #57 ) ) ;
#181 = DIRECTION ( 'NONE',  ( 0.000000000000000000, 0.000000000000000000, 1.000000000000000000 ) ) ;
#182 = DIRECTION ( 'NONE',  ( 1.000000000000000000, 0.000000000000000000, 0.000000000000000000 ) ) ;
#183 = LOCAL_TIME ( 11, 19, 10.00000000000000000, #247 ) ;
#184 = EDGE_LOOP ( 'NONE', ( #23, #30, #129, #62 ) ) ;
#185 = CARTESIAN_POINT ( 'NONE',  ( 0.000000000000000000, 0.000000000000000000, 800.0000000000000000 ) ) ;
#186 = DIRECTION ( 'NONE',  ( -1.000000000000000000, 0.000000000000000000, 0.000000000000000000 ) ) ;
#187 = VECTOR ( 'NONE', #204, 1000.000000000000000 ) ;
#188 = CC_DESIGN_PERSON_AND_ORGANIZATION_ASSIGNMENT ( #163, #59, ( #208 ) ) ;
#189 = DATE_AND_TIME ( #118, #151 ) ;
#190 = PERSON_AND_ORGANIZATION_ROLE ( 'creator' ) ;
#191 = ORIENTED_EDGE ( 'NONE', *, *, #251, .F. ) ;
#192 = EDGE_CURVE ( 'NONE', #6, #221, #148, .T. ) ;
#193 = DIRECTION ( 'NONE',  ( 1.000000000000000000, 0.000000000000000000, -0.000000000000000000 ) ) ;
#194 = CARTESIAN_POINT ( 'NONE',  ( 0.000000000000000000, 0.000000000000000000, 0.000000000000000000 ) ) ;
#195 = DIRECTION ( 'NONE',  ( 1.000000000000000000, 0.000000000000000000, 0.000000000000000000 ) ) ;
#196 = CARTESIAN_POINT ( 'NONE',  ( -10.00000000000000000, 0.000000000000000000, 7.000000000000000000 ) ) ;
#197 = CC_DESIGN_DATE_AND_TIME_ASSIGNMENT ( #189, #7, ( #208 ) ) ;
#198 = CARTESIAN_POINT ( 'NONE',  ( 0.000000000000000000, 0.000000000000000000, 7.000000000000000000 ) ) ;
#199 = CALENDAR_DATE ( 2023, 13, 2 ) ;
#200 = FACE_OUTER_BOUND ( 'NONE', #184, .T. ) ;
#201 = SHAPE_DEFINITION_REPRESENTATION ( #232, #111 ) ;
#202 = ORIENTED_EDGE ( 'NONE', *, *, #224, .F. ) ;
#203 = DIRECTION ( 'NONE',  ( 1.000000000000000000, 0.000000000000000000, -0.000000000000000000 ) ) ;
#204 = DIRECTION ( 'NONE',  ( -0.000000000000000000, -0.000000000000000000, -1.000000000000000000 ) ) ;
#205 = DIRECTION ( 'NONE',  ( -0.000000000000000000, -0.000000000000000000, -1.000000000000000000 ) ) ;
#206 = ORIENTED_EDGE ( 'NONE', *, *, #158, .T. ) ;
#207 = EDGE_CURVE ( 'NONE', #177, #164, #179, .T. ) ;
#208 = SECURITY_CLASSIFICATION ( '', '', #48 ) ;
#209 = APPROVAL_ROLE ( '' ) ;
#210 = EDGE_CURVE ( 'NONE', #82, #166, #154, .T. ) ;
#211 = CIRCLE ( 'NONE', #15, 6.000000000000000888 ) ;
#212 = AXIS2_PLACEMENT_3D ( 'NONE', #236, #131, #193 ) ;
#213 = DIRECTION ( 'NONE',  ( 0.000000000000000000, 0.000000000000000000, 1.000000000000000000 ) ) ;
#214 = AXIS2_PLACEMENT_3D ( 'NONE', #77, #116, #53 ) ;
#215 = DIRECTION ( 'NONE',  ( -0.000000000000000000, -0.000000000000000000, -1.000000000000000000 ) ) ;
#216 = CC_DESIGN_PERSON_AND_ORGANIZATION_ASSIGNMENT ( #245, #228, ( #57 ) ) ;
#217 = DIRECTION ( 'NONE',  ( 1.000000000000000000, 0.000000000000000000, 0.000000000000000000 ) ) ;
#218 = DIRECTION ( 'NONE',  ( -1.000000000000000000, 0.000000000000000000, 0.000000000000000000 ) ) ;
#219 = CC_DESIGN_PERSON_AND_ORGANIZATION_ASSIGNMENT ( #35, #22, ( #56 ) ) ;
#220 = APPROVAL_ROLE ( '' ) ;
#221 = VERTEX_POINT ( 'NONE', #75 ) ;
#222 = ORIENTED_EDGE ( 'NONE', *, *, #234, .F. ) ;
#223 = DIRECTION ( 'NONE',  ( 1.000000000000000000, 0.000000000000000000, -0.000000000000000000 ) ) ;
#224 = EDGE_CURVE ( 'NONE', #166, #82, #83, .T. ) ;
#225 = APPROVAL_DATE_TIME ( #70, #50 ) ;
#226 = DIRECTION ( 'NONE',  ( -0.000000000000000000, -0.000000000000000000, -1.000000000000000000 ) ) ;
#227 = AXIS2_PLACEMENT_3D ( 'NONE', #123, #205, #29 ) ;
#228 = PERSON_AND_ORGANIZATION_ROLE ( 'design_supplier' ) ;
#229 = ORGANIZATION ( 'NEURÈENÝ', 'NEURÈENÝ', '' ) ;
#230 = DATE_AND_TIME ( #199, #120 ) ;
#231 = CARTESIAN_POINT ( 'NONE',  ( -6.000000000000000888, 0.000000000000000000, 800.0000000000000000 ) ) ;
#232 = PRODUCT_DEFINITION_SHAPE ( 'NONE', 'NONE',  #122 ) ;
#233 = CC_DESIGN_PERSON_AND_ORGANIZATION_ASSIGNMENT ( #108, #190, ( #57 ) ) ;
#234 = EDGE_CURVE ( 'NONE', #164, #2, #155, .T. ) ;
#235 =( NAMED_UNIT ( * ) SI_UNIT ( $, .STERADIAN. ) SOLID_ANGLE_UNIT ( ) );
#236 = CARTESIAN_POINT ( 'NONE',  ( 0.000000000000000000, 0.000000000000000000, 0.000000000000000000 ) ) ;
#237 = MECHANICAL_CONTEXT ( 'NONE', #24, 'mechanical' ) ;
#238 = ORIENTED_EDGE ( 'NONE', *, *, #110, .T. ) ;
#239 = ADVANCED_FACE ( 'NONE', ( #156 ), #78, .F. ) ;
#240 = FACE_OUTER_BOUND ( 'NONE', #101, .T. ) ;
#241 = ORIENTED_EDGE ( 'NONE', *, *, #210, .T. ) ;
#242 = PLANE ( 'NONE',  #11 ) ;
#243 = AXIS2_PLACEMENT_3D ( 'NONE', #194, #38, #41 ) ;
#244 = CARTESIAN_POINT ( 'NONE',  ( 10.00000000000000000, 1.224646799147353256E-15, 7.000000000000000000 ) ) ;
#245 = PERSON_AND_ORGANIZATION ( #86, #229 ) ;
#246 = LINE ( 'NONE', #124, #157 ) ;
#247 = COORDINATED_UNIVERSAL_TIME_OFFSET ( 1, 0, .AHEAD. ) ;
#248 = DIRECTION ( 'NONE',  ( 0.000000000000000000, 0.000000000000000000, 1.000000000000000000 ) ) ;
#249 = EDGE_CURVE ( 'NONE', #176, #177, #135, .T. ) ;
#250 = EDGE_LOOP ( 'NONE', ( #222, #191 ) ) ;
#251 = EDGE_CURVE ( 'NONE', #2, #164, #174, .T. ) ;
#252 = DIRECTION ( 'NONE',  ( 1.000000000000000000, 0.000000000000000000, 0.000000000000000000 ) ) ;
#253 = DESIGN_CONTEXT ( 'detailed design', #40, 'design' ) ;
#254 = FACE_OUTER_BOUND ( 'NONE', #33, .T. ) ;
#255 = APPLICATION_PROTOCOL_DEFINITION ( 'international standard', 'config_control_design', 1994, #24 ) ;
ENDSEC;
END-ISO-10303-21;
