ISO-10303-21;
HEADER;
FILE_DESCRIPTION (( 'STEP AP203' ),
    '1' );
FILE_NAME ('255c.STEP',
    '2023-02-13T14:36:53',
    ( '' ),
    ( '' ),
    'SwSTEP 2.0',
    'SolidWorks 2019',
    '' );
FILE_SCHEMA (( 'CONFIG_CONTROL_DESIGN' ));
ENDSEC;

DATA;
#1 = CC_DESIGN_APPROVAL ( #22, ( #235 ) ) ;
#2 = AXIS2_PLACEMENT_3D ( 'NONE', #219, #115, #196 ) ;
#3 = CALENDAR_DATE ( 2023, 13, 2 ) ;
#4 = PRODUCT_RELATED_PRODUCT_CATEGORY ( 'detail', '', ( #26 ) ) ;
#5 = PERSON_AND_ORGANIZATION_ROLE ( 'creator' ) ;
#6 = ORIENTED_EDGE ( 'NONE', *, *, #251, .T. ) ;
#7 = DIRECTION ( 'NONE',  ( 0.000000000000000000, 0.000000000000000000, 1.000000000000000000 ) ) ;
#8 = CYLINDRICAL_SURFACE ( 'NONE', #242, 2.500000000000000000 ) ;
#9 = PERSON_AND_ORGANIZATION ( #46, #82 ) ;
#10 = UNCERTAINTY_MEASURE_WITH_UNIT (LENGTH_MEASURE( 1.000000000000000082E-05 ), #243, 'distance_accuracy_value', 'NONE');
#11 = DIRECTION ( 'NONE',  ( -0.000000000000000000, -0.000000000000000000, -1.000000000000000000 ) ) ;
#12 = AXIS2_PLACEMENT_3D ( 'NONE', #170, #156, #226 ) ;
#13 = EDGE_LOOP ( 'NONE', ( #161, #87 ) ) ;
#14 = LOCAL_TIME ( 15, 36, 53.00000000000000000, #158 ) ;
#15 = ORIENTED_EDGE ( 'NONE', *, *, #102, .T. ) ;
#16 = CIRCLE ( 'NONE', #85, 2.500000000000000000 ) ;
#17 = CC_DESIGN_PERSON_AND_ORGANIZATION_ASSIGNMENT ( #186, #5, ( #38 ) ) ;
#18 = DATE_AND_TIME ( #202, #128 ) ;
#19 = PRODUCT_DEFINITION_FORMATION_WITH_SPECIFIED_SOURCE ( 'LIBOVOLNÝ', '', #26, .NOT_KNOWN. ) ;
#20 = AXIS2_PLACEMENT_3D ( 'NONE', #49, #179, #162 ) ;
#21 = ORIENTED_EDGE ( 'NONE', *, *, #251, .F. ) ;
#22 = APPROVAL ( #228, 'NEURÈENÝ' ) ;
#23 = PERSON_AND_ORGANIZATION_ROLE ( 'creator' ) ;
#24 = CARTESIAN_POINT ( 'NONE',  ( 2.500000000000000000, 3.061616997868383141E-16, 3.000000000000000000 ) ) ;
#25 = DIRECTION ( 'NONE',  ( 1.000000000000000000, 0.000000000000000000, 0.000000000000000000 ) ) ;
#26 = PRODUCT ( '255c', '255c', '', ( #121 ) ) ;
#27 = PLANE ( 'NONE',  #149 ) ;
#28 = AXIS2_PLACEMENT_3D ( 'NONE', #220, #143, #40 ) ;
#29 = CC_DESIGN_PERSON_AND_ORGANIZATION_ASSIGNMENT ( #9, #23, ( #19 ) ) ;
#30 = ORIENTED_EDGE ( 'NONE', *, *, #224, .T. ) ;
#31 = DIRECTION ( 'NONE',  ( 0.000000000000000000, 0.000000000000000000, 1.000000000000000000 ) ) ;
#32 = EDGE_CURVE ( 'NONE', #191, #111, #199, .T. ) ;
#33 = CARTESIAN_POINT ( 'NONE',  ( -2.500000000000000000, 0.000000000000000000, 315.0000000000000000 ) ) ;
#34 = ORIENTED_EDGE ( 'NONE', *, *, #137, .T. ) ;
#35 = PERSON_AND_ORGANIZATION ( #46, #82 ) ;
#36 = FACE_OUTER_BOUND ( 'NONE', #237, .T. ) ;
#37 = CARTESIAN_POINT ( 'NONE',  ( 5.000000000000000000, 6.123233995736766282E-16, 3.000000000000000000 ) ) ;
#38 = PRODUCT_DEFINITION ( 'NEZNÁMÝ', '', #19, #225 ) ;
#39 =( NAMED_UNIT ( * ) SI_UNIT ( $, .STERADIAN. ) SOLID_ANGLE_UNIT ( ) );
#40 = DIRECTION ( 'NONE',  ( 1.000000000000000000, 0.000000000000000000, 0.000000000000000000 ) ) ;
#41 = DIRECTION ( 'NONE',  ( -1.000000000000000000, 0.000000000000000000, 0.000000000000000000 ) ) ;
#42 = ADVANCED_FACE ( 'NONE', ( #163 ), #181, .T. ) ;
#43 = FACE_OUTER_BOUND ( 'NONE', #187, .T. ) ;
#44 = ORIENTED_EDGE ( 'NONE', *, *, #58, .T. ) ;
#45 = APPROVAL_ROLE ( '' ) ;
#46 = PERSON ( 'NEURÈENÝ', 'NEURÈENÝ', 'NEURÈENÝ', ('NEURÈENÝ'), ('NEURÈENÝ'), ('NEURÈENÝ') ) ;
#47 = LOCAL_TIME ( 15, 36, 53.00000000000000000, #80 ) ;
#48 = FACE_OUTER_BOUND ( 'NONE', #50, .T. ) ;
#49 = CARTESIAN_POINT ( 'NONE',  ( 0.000000000000000000, 0.000000000000000000, 3.000000000000000000 ) ) ;
#50 = EDGE_LOOP ( 'NONE', ( #44, #79 ) ) ;
#51 = APPLICATION_PROTOCOL_DEFINITION ( 'international standard', 'config_control_design', 1994, #247 ) ;
#52 = PLANE ( 'NONE',  #105 ) ;
#53 = ORIENTED_EDGE ( 'NONE', *, *, #230, .T. ) ;
#54 = CARTESIAN_POINT ( 'NONE',  ( -5.000000000000000000, 0.000000000000000000, 0.000000000000000000 ) ) ;
#55 = APPROVAL ( #77, 'NEURÈENÝ' ) ;
#56 = CYLINDRICAL_SURFACE ( 'NONE', #2, 5.000000000000000000 ) ;
#57 = CALENDAR_DATE ( 2023, 13, 2 ) ;
#58 = EDGE_CURVE ( 'NONE', #134, #71, #238, .T. ) ;
#59 = DIRECTION ( 'NONE',  ( -1.000000000000000000, 0.000000000000000000, 0.000000000000000000 ) ) ;
#60 = EDGE_CURVE ( 'NONE', #111, #169, #254, .T. ) ;
#61 = ADVANCED_FACE ( 'NONE', ( #48 ), #27, .T. ) ;
#62 = ORIENTED_EDGE ( 'NONE', *, *, #217, .F. ) ;
#63 = PERSON_AND_ORGANIZATION ( #46, #82 ) ;
#64 = ADVANCED_FACE ( 'NONE', ( #36 ), #56, .T. ) ;
#65 =( GEOMETRIC_REPRESENTATION_CONTEXT ( 3 ) GLOBAL_UNCERTAINTY_ASSIGNED_CONTEXT ( ( #10 ) ) GLOBAL_UNIT_ASSIGNED_CONTEXT ( ( #243, #124, #39 ) ) REPRESENTATION_CONTEXT ( 'NONE', 'WORKASPACE' ) );
#66 = DIRECTION ( 'NONE',  ( 1.000000000000000000, 0.000000000000000000, 0.000000000000000000 ) ) ;
#67 = PERSON_AND_ORGANIZATION ( #46, #82 ) ;
#68 = CC_DESIGN_APPROVAL ( #55, ( #38 ) ) ;
#69 = DIRECTION ( 'NONE',  ( 0.000000000000000000, 0.000000000000000000, 1.000000000000000000 ) ) ;
#70 = AXIS2_PLACEMENT_3D ( 'NONE', #245, #246, #141 ) ;
#71 = VERTEX_POINT ( 'NONE', #239 ) ;
#72 = DIRECTION ( 'NONE',  ( 1.000000000000000000, 0.000000000000000000, 0.000000000000000000 ) ) ;
#73 = CC_DESIGN_PERSON_AND_ORGANIZATION_ASSIGNMENT ( #63, #127, ( #26 ) ) ;
#74 = CARTESIAN_POINT ( 'NONE',  ( 5.000000000000000000, 6.123233995736766282E-16, 0.000000000000000000 ) ) ;
#75 = FACE_OUTER_BOUND ( 'NONE', #166, .T. ) ;
#76 = DIRECTION ( 'NONE',  ( 0.000000000000000000, 0.000000000000000000, 1.000000000000000000 ) ) ;
#77 = APPROVAL_STATUS ( 'not_yet_approved' ) ;
#78 = PERSON_AND_ORGANIZATION ( #46, #82 ) ;
#79 = ORIENTED_EDGE ( 'NONE', *, *, #142, .T. ) ;
#80 = COORDINATED_UNIVERSAL_TIME_OFFSET ( 1, 0, .AHEAD. ) ;
#81 = AXIS2_PLACEMENT_3D ( 'NONE', #157, #31, #144 ) ;
#82 = ORGANIZATION ( 'NEURÈENÝ', 'NEURÈENÝ', '' ) ;
#83 = CARTESIAN_POINT ( 'NONE',  ( 0.000000000000000000, 0.000000000000000000, 3.000000000000000000 ) ) ;
#84 = CC_DESIGN_DATE_AND_TIME_ASSIGNMENT ( #18, #107, ( #235 ) ) ;
#85 = AXIS2_PLACEMENT_3D ( 'NONE', #222, #76, #25 ) ;
#86 = CARTESIAN_POINT ( 'NONE',  ( 0.000000000000000000, 0.000000000000000000, 0.000000000000000000 ) ) ;
#87 = ORIENTED_EDGE ( 'NONE', *, *, #224, .F. ) ;
#88 = CIRCLE ( 'NONE', #70, 2.500000000000000000 ) ;
#89 = AXIS2_PLACEMENT_3D ( 'NONE', #151, #189, #72 ) ;
#90 = VERTEX_POINT ( 'NONE', #24 ) ;
#91 = APPROVAL ( #221, 'NEURÈENÝ' ) ;
#92 = CARTESIAN_POINT ( 'NONE',  ( 0.000000000000000000, 0.000000000000000000, 0.000000000000000000 ) ) ;
#93 = AXIS2_PLACEMENT_3D ( 'NONE', #118, #69, #140 ) ;
#94 = AXIS2_PLACEMENT_3D ( 'NONE', #83, #210, #178 ) ;
#95 = PERSON_AND_ORGANIZATION ( #46, #82 ) ;
#96 = APPROVAL_PERSON_ORGANIZATION ( #159, #55, #45 ) ;
#97 = APPROVAL_ROLE ( '' ) ;
#98 = CYLINDRICAL_SURFACE ( 'NONE', #208, 2.500000000000000000 ) ;
#99 = CARTESIAN_POINT ( 'NONE',  ( 5.000000000000000000, 6.123233995736766282E-16, 3.000000000000000000 ) ) ;
#100 = FACE_OUTER_BOUND ( 'NONE', #209, .T. ) ;
#101 = APPROVAL_PERSON_ORGANIZATION ( #78, #22, #233 ) ;
#102 = EDGE_CURVE ( 'NONE', #111, #191, #138, .T. ) ;
#103 = APPROVAL_PERSON_ORGANIZATION ( #95, #91, #97 ) ;
#104 = ORIENTED_EDGE ( 'NONE', *, *, #32, .T. ) ;
#105 = AXIS2_PLACEMENT_3D ( 'NONE', #86, #133, #125 ) ;
#106 = ORIENTED_EDGE ( 'NONE', *, *, #142, .F. ) ;
#107 = DATE_TIME_ROLE ( 'classification_date' ) ;
#108 = ADVANCED_FACE ( 'NONE', ( #100 ), #98, .T. ) ;
#109 = PERSON_AND_ORGANIZATION_ROLE ( 'classification_officer' ) ;
#110 = FACE_OUTER_BOUND ( 'NONE', #129, .T. ) ;
#111 = VERTEX_POINT ( 'NONE', #171 ) ;
#112 = ADVANCED_FACE ( 'NONE', ( #43 ), #8, .T. ) ;
#113 = ORIENTED_EDGE ( 'NONE', *, *, #201, .F. ) ;
#114 = CARTESIAN_POINT ( 'NONE',  ( -2.500000000000000000, 0.000000000000000000, 315.0000000000000000 ) ) ;
#115 = DIRECTION ( 'NONE',  ( -0.000000000000000000, -0.000000000000000000, -1.000000000000000000 ) ) ;
#116 = VECTOR ( 'NONE', #200, 1000.000000000000000 ) ;
#117 = ORIENTED_EDGE ( 'NONE', *, *, #102, .F. ) ;
#118 = CARTESIAN_POINT ( 'NONE',  ( 0.000000000000000000, 0.000000000000000000, 315.0000000000000000 ) ) ;
#119 = ORIENTED_EDGE ( 'NONE', *, *, #60, .F. ) ;
#120 = ORIENTED_EDGE ( 'NONE', *, *, #32, .F. ) ;
#121 = MECHANICAL_CONTEXT ( 'NONE', #247, 'mechanical' ) ;
#122 = ORIENTED_EDGE ( 'NONE', *, *, #58, .F. ) ;
#123 = FACE_BOUND ( 'NONE', #13, .T. ) ;
#124 =( NAMED_UNIT ( * ) PLANE_ANGLE_UNIT ( ) SI_UNIT ( $, .RADIAN. ) );
#125 = DIRECTION ( 'NONE',  ( 1.000000000000000000, 0.000000000000000000, -0.000000000000000000 ) ) ;
#126 = PLANE ( 'NONE',  #20 ) ;
#127 = PERSON_AND_ORGANIZATION_ROLE ( 'design_owner' ) ;
#128 = LOCAL_TIME ( 15, 36, 53.00000000000000000, #176 ) ;
#129 = EDGE_LOOP ( 'NONE', ( #113, #21 ) ) ;
#130 = ADVANCED_FACE ( 'NONE', ( #123, #75 ), #126, .T. ) ;
#131 = ORIENTED_EDGE ( 'NONE', *, *, #60, .T. ) ;
#132 = AXIS2_PLACEMENT_3D ( 'NONE', #92, #7, #66 ) ;
#133 = DIRECTION ( 'NONE',  ( 0.000000000000000000, 0.000000000000000000, 1.000000000000000000 ) ) ;
#134 = VERTEX_POINT ( 'NONE', #33 ) ;
#135 = CC_DESIGN_PERSON_AND_ORGANIZATION_ASSIGNMENT ( #35, #109, ( #235 ) ) ;
#136 = ORIENTED_EDGE ( 'NONE', *, *, #145, .T. ) ;
#137 = EDGE_CURVE ( 'NONE', #71, #90, #173, .T. ) ;
#138 = CIRCLE ( 'NONE', #12, 5.000000000000000000 ) ;
#139 = LINE ( 'NONE', #99, #177 ) ;
#140 = DIRECTION ( 'NONE',  ( 1.000000000000000000, 0.000000000000000000, 0.000000000000000000 ) ) ;
#141 = DIRECTION ( 'NONE',  ( 1.000000000000000000, 0.000000000000000000, 0.000000000000000000 ) ) ;
#142 = EDGE_CURVE ( 'NONE', #71, #134, #212, .T. ) ;
#143 = DIRECTION ( 'NONE',  ( 0.000000000000000000, 0.000000000000000000, 1.000000000000000000 ) ) ;
#144 = DIRECTION ( 'NONE',  ( 1.000000000000000000, 0.000000000000000000, 0.000000000000000000 ) ) ;
#145 = EDGE_CURVE ( 'NONE', #184, #90, #16, .T. ) ;
#146 = DIRECTION ( 'NONE',  ( 1.000000000000000000, 0.000000000000000000, 0.000000000000000000 ) ) ;
#147 = CARTESIAN_POINT ( 'NONE',  ( -5.000000000000000000, 0.000000000000000000, 3.000000000000000000 ) ) ;
#148 = ADVANCED_FACE ( 'NONE', ( #110 ), #52, .F. ) ;
#149 = AXIS2_PLACEMENT_3D ( 'NONE', #167, #214, #193 ) ;
#150 = ORIENTED_EDGE ( 'NONE', *, *, #201, .T. ) ;
#151 = CARTESIAN_POINT ( 'NONE',  ( 0.000000000000000000, 0.000000000000000000, 0.000000000000000000 ) ) ;
#152 = CARTESIAN_POINT ( 'NONE',  ( 0.000000000000000000, 0.000000000000000000, 315.0000000000000000 ) ) ;
#153 = LOCAL_TIME ( 15, 36, 53.00000000000000000, #229 ) ;
#154 = ORIENTED_EDGE ( 'NONE', *, *, #217, .T. ) ;
#155 = CIRCLE ( 'NONE', #132, 5.000000000000000000 ) ;
#156 = DIRECTION ( 'NONE',  ( 0.000000000000000000, 0.000000000000000000, 1.000000000000000000 ) ) ;
#157 = CARTESIAN_POINT ( 'NONE',  ( 0.000000000000000000, 0.000000000000000000, 3.000000000000000000 ) ) ;
#158 = COORDINATED_UNIVERSAL_TIME_OFFSET ( 1, 0, .AHEAD. ) ;
#159 = PERSON_AND_ORGANIZATION ( #46, #82 ) ;
#160 = ADVANCED_BREP_SHAPE_REPRESENTATION ( '255c', ( #190, #89 ), #65 ) ;
#161 = ORIENTED_EDGE ( 'NONE', *, *, #145, .F. ) ;
#162 = DIRECTION ( 'NONE',  ( 1.000000000000000000, 0.000000000000000000, -0.000000000000000000 ) ) ;
#163 = FACE_OUTER_BOUND ( 'NONE', #194, .T. ) ;
#164 = CC_DESIGN_APPROVAL ( #91, ( #19 ) ) ;
#165 = APPROVAL_DATE_TIME ( #180, #55 ) ;
#166 = EDGE_LOOP ( 'NONE', ( #15, #104 ) ) ;
#167 = CARTESIAN_POINT ( 'NONE',  ( 0.000000000000000000, 0.000000000000000000, 315.0000000000000000 ) ) ;
#168 = ORIENTED_EDGE ( 'NONE', *, *, #137, .F. ) ;
#169 = VERTEX_POINT ( 'NONE', #54 ) ;
#170 = CARTESIAN_POINT ( 'NONE',  ( 0.000000000000000000, 0.000000000000000000, 3.000000000000000000 ) ) ;
#171 = CARTESIAN_POINT ( 'NONE',  ( -5.000000000000000000, 0.000000000000000000, 3.000000000000000000 ) ) ;
#172 = CC_DESIGN_PERSON_AND_ORGANIZATION_ASSIGNMENT ( #67, #255, ( #19 ) ) ;
#173 = LINE ( 'NONE', #241, #223 ) ;
#174 = DIRECTION ( 'NONE',  ( -0.000000000000000000, -0.000000000000000000, -1.000000000000000000 ) ) ;
#175 = CALENDAR_DATE ( 2023, 13, 2 ) ;
#176 = COORDINATED_UNIVERSAL_TIME_OFFSET ( 1, 0, .AHEAD. ) ;
#177 = VECTOR ( 'NONE', #11, 1000.000000000000000 ) ;
#178 = DIRECTION ( 'NONE',  ( -1.000000000000000000, 0.000000000000000000, 0.000000000000000000 ) ) ;
#179 = DIRECTION ( 'NONE',  ( 0.000000000000000000, 0.000000000000000000, 1.000000000000000000 ) ) ;
#180 = DATE_AND_TIME ( #211, #153 ) ;
#181 = CYLINDRICAL_SURFACE ( 'NONE', #94, 5.000000000000000000 ) ;
#182 = VECTOR ( 'NONE', #231, 1000.000000000000000 ) ;
#183 = SHAPE_DEFINITION_REPRESENTATION ( #192, #160 ) ;
#184 = VERTEX_POINT ( 'NONE', #215 ) ;
#185 = APPLICATION_CONTEXT ( 'configuration controlled 3d designs of mechanical parts and assemblies' ) ;
#186 = PERSON_AND_ORGANIZATION ( #46, #82 ) ;
#187 = EDGE_LOOP ( 'NONE', ( #168, #122, #154, #136 ) ) ;
#188 = DATE_AND_TIME ( #57, #248 ) ;
#189 = DIRECTION ( 'NONE',  ( 0.000000000000000000, 0.000000000000000000, 1.000000000000000000 ) ) ;
#190 = MANIFOLD_SOLID_BREP ( 'Pøidat vysunutím3', #216 ) ;
#191 = VERTEX_POINT ( 'NONE', #37 ) ;
#192 = PRODUCT_DEFINITION_SHAPE ( 'NONE', 'NONE',  #38 ) ;
#193 = DIRECTION ( 'NONE',  ( 1.000000000000000000, 0.000000000000000000, -0.000000000000000000 ) ) ;
#194 = EDGE_LOOP ( 'NONE', ( #206, #117, #131, #150 ) ) ;
#195 = AXIS2_PLACEMENT_3D ( 'NONE', #227, #252, #146 ) ;
#196 = DIRECTION ( 'NONE',  ( -1.000000000000000000, 0.000000000000000000, 0.000000000000000000 ) ) ;
#197 = CARTESIAN_POINT ( 'NONE',  ( 0.000000000000000000, 0.000000000000000000, 315.0000000000000000 ) ) ;
#198 = DIRECTION ( 'NONE',  ( -0.000000000000000000, -0.000000000000000000, -1.000000000000000000 ) ) ;
#199 = CIRCLE ( 'NONE', #81, 5.000000000000000000 ) ;
#200 = DIRECTION ( 'NONE',  ( -0.000000000000000000, -0.000000000000000000, -1.000000000000000000 ) ) ;
#201 = EDGE_CURVE ( 'NONE', #169, #250, #155, .T. ) ;
#202 = CALENDAR_DATE ( 2023, 13, 2 ) ;
#203 = APPROVAL_DATE_TIME ( #236, #91 ) ;
#204 = CC_DESIGN_SECURITY_CLASSIFICATION ( #235, ( #19 ) ) ;
#205 = COORDINATED_UNIVERSAL_TIME_OFFSET ( 1, 0, .AHEAD. ) ;
#206 = ORIENTED_EDGE ( 'NONE', *, *, #230, .F. ) ;
#207 = APPROVAL_DATE_TIME ( #249, #22 ) ;
#208 = AXIS2_PLACEMENT_3D ( 'NONE', #197, #174, #41 ) ;
#209 = EDGE_LOOP ( 'NONE', ( #106, #34, #30, #62 ) ) ;
#210 = DIRECTION ( 'NONE',  ( -0.000000000000000000, -0.000000000000000000, -1.000000000000000000 ) ) ;
#211 = CALENDAR_DATE ( 2023, 13, 2 ) ;
#212 = CIRCLE ( 'NONE', #93, 2.500000000000000000 ) ;
#213 = CC_DESIGN_DATE_AND_TIME_ASSIGNMENT ( #188, #234, ( #38 ) ) ;
#214 = DIRECTION ( 'NONE',  ( 0.000000000000000000, 0.000000000000000000, 1.000000000000000000 ) ) ;
#215 = CARTESIAN_POINT ( 'NONE',  ( -2.500000000000000000, 0.000000000000000000, 3.000000000000000000 ) ) ;
#216 = CLOSED_SHELL ( 'NONE', ( #108, #64, #42, #130, #148, #112, #61 ) ) ;
#217 = EDGE_CURVE ( 'NONE', #134, #184, #240, .T. ) ;
#218 = CIRCLE ( 'NONE', #28, 5.000000000000000000 ) ;
#219 = CARTESIAN_POINT ( 'NONE',  ( 0.000000000000000000, 0.000000000000000000, 3.000000000000000000 ) ) ;
#220 = CARTESIAN_POINT ( 'NONE',  ( 0.000000000000000000, 0.000000000000000000, 0.000000000000000000 ) ) ;
#221 = APPROVAL_STATUS ( 'not_yet_approved' ) ;
#222 = CARTESIAN_POINT ( 'NONE',  ( 0.000000000000000000, 0.000000000000000000, 3.000000000000000000 ) ) ;
#223 = VECTOR ( 'NONE', #198, 1000.000000000000000 ) ;
#224 = EDGE_CURVE ( 'NONE', #90, #184, #88, .T. ) ;
#225 = DESIGN_CONTEXT ( 'detailed design', #185, 'design' ) ;
#226 = DIRECTION ( 'NONE',  ( 1.000000000000000000, 0.000000000000000000, 0.000000000000000000 ) ) ;
#227 = CARTESIAN_POINT ( 'NONE',  ( 0.000000000000000000, 0.000000000000000000, 315.0000000000000000 ) ) ;
#228 = APPROVAL_STATUS ( 'not_yet_approved' ) ;
#229 = COORDINATED_UNIVERSAL_TIME_OFFSET ( 1, 0, .AHEAD. ) ;
#230 = EDGE_CURVE ( 'NONE', #191, #250, #139, .T. ) ;
#231 = DIRECTION ( 'NONE',  ( -0.000000000000000000, -0.000000000000000000, -1.000000000000000000 ) ) ;
#232 = SECURITY_CLASSIFICATION_LEVEL ( 'unclassified' ) ;
#233 = APPROVAL_ROLE ( '' ) ;
#234 = DATE_TIME_ROLE ( 'creation_date' ) ;
#235 = SECURITY_CLASSIFICATION ( '', '', #232 ) ;
#236 = DATE_AND_TIME ( #3, #14 ) ;
#237 = EDGE_LOOP ( 'NONE', ( #120, #53, #6, #119 ) ) ;
#238 = CIRCLE ( 'NONE', #195, 2.500000000000000000 ) ;
#239 = CARTESIAN_POINT ( 'NONE',  ( 2.500000000000000000, 3.061616997868383141E-16, 315.0000000000000000 ) ) ;
#240 = LINE ( 'NONE', #114, #116 ) ;
#241 = CARTESIAN_POINT ( 'NONE',  ( 2.500000000000000000, 3.061616997868383141E-16, 315.0000000000000000 ) ) ;
#242 = AXIS2_PLACEMENT_3D ( 'NONE', #152, #244, #59 ) ;
#243 =( LENGTH_UNIT ( ) NAMED_UNIT ( * ) SI_UNIT ( .MILLI., .METRE. ) );
#244 = DIRECTION ( 'NONE',  ( -0.000000000000000000, -0.000000000000000000, -1.000000000000000000 ) ) ;
#245 = CARTESIAN_POINT ( 'NONE',  ( 0.000000000000000000, 0.000000000000000000, 3.000000000000000000 ) ) ;
#246 = DIRECTION ( 'NONE',  ( 0.000000000000000000, 0.000000000000000000, 1.000000000000000000 ) ) ;
#247 = APPLICATION_CONTEXT ( 'configuration controlled 3d designs of mechanical parts and assemblies' ) ;
#248 = LOCAL_TIME ( 15, 36, 53.00000000000000000, #205 ) ;
#249 = DATE_AND_TIME ( #175, #47 ) ;
#250 = VERTEX_POINT ( 'NONE', #74 ) ;
#251 = EDGE_CURVE ( 'NONE', #250, #169, #218, .T. ) ;
#252 = DIRECTION ( 'NONE',  ( 0.000000000000000000, 0.000000000000000000, 1.000000000000000000 ) ) ;
#253 = APPLICATION_PROTOCOL_DEFINITION ( 'international standard', 'config_control_design', 1994, #185 ) ;
#254 = LINE ( 'NONE', #147, #182 ) ;
#255 = PERSON_AND_ORGANIZATION_ROLE ( 'design_supplier' ) ;
ENDSEC;
END-ISO-10303-21;
