ISO-10303-21;
HEADER;
FILE_DESCRIPTION (( 'STEP AP203' ),
    '1' );
FILE_NAME ('0ad4.STEP',
    '2023-02-13T10:17:21',
    ( '' ),
    ( '' ),
    'SwSTEP 2.0',
    'SolidWorks 2019',
    '' );
FILE_SCHEMA (( 'CONFIG_CONTROL_DESIGN' ));
ENDSEC;

DATA;
#1 = ADVANCED_FACE ( 'NONE', ( #253 ), #100, .T. ) ;
#2 = DIRECTION ( 'NONE',  ( 1.000000000000000000, 0.000000000000000000, -0.000000000000000000 ) ) ;
#3 = CARTESIAN_POINT ( 'NONE',  ( 0.000000000000000000, 0.000000000000000000, 7.000000000000000000 ) ) ;
#4 = DIRECTION ( 'NONE',  ( 1.000000000000000000, 0.000000000000000000, 0.000000000000000000 ) ) ;
#5 = CC_DESIGN_PERSON_AND_ORGANIZATION_ASSIGNMENT ( #113, #193, ( #45 ) ) ;
#6 = DIRECTION ( 'NONE',  ( -1.000000000000000000, 0.000000000000000000, 0.000000000000000000 ) ) ;
#7 = PERSON_AND_ORGANIZATION ( #248, #99 ) ;
#8 = DIRECTION ( 'NONE',  ( 0.000000000000000000, 0.000000000000000000, 1.000000000000000000 ) ) ;
#9 = SECURITY_CLASSIFICATION ( '', '', #124 ) ;
#10 = ORIENTED_EDGE ( 'NONE', *, *, #67, .F. ) ;
#11 = PERSON_AND_ORGANIZATION ( #248, #99 ) ;
#12 = EDGE_CURVE ( 'NONE', #117, #74, #225, .T. ) ;
#13 = CALENDAR_DATE ( 2023, 13, 2 ) ;
#14 = ORIENTED_EDGE ( 'NONE', *, *, #129, .T. ) ;
#15 = CC_DESIGN_PERSON_AND_ORGANIZATION_ASSIGNMENT ( #102, #159, ( #9 ) ) ;
#16 = PERSON_AND_ORGANIZATION_ROLE ( 'design_supplier' ) ;
#17 = CARTESIAN_POINT ( 'NONE',  ( 0.000000000000000000, 0.000000000000000000, 630.0000000000000000 ) ) ;
#18 = APPROVAL_ROLE ( '' ) ;
#19 = CYLINDRICAL_SURFACE ( 'NONE', #92, 9.000000000000000000 ) ;
#20 = EDGE_CURVE ( 'NONE', #50, #227, #123, .T. ) ;
#21 = CARTESIAN_POINT ( 'NONE',  ( 0.000000000000000000, 0.000000000000000000, 630.0000000000000000 ) ) ;
#22 = CARTESIAN_POINT ( 'NONE',  ( 0.000000000000000000, 0.000000000000000000, 0.000000000000000000 ) ) ;
#23 = AXIS2_PLACEMENT_3D ( 'NONE', #153, #191, #6 ) ;
#24 = VERTEX_POINT ( 'NONE', #77 ) ;
#25 = DESIGN_CONTEXT ( 'detailed design', #240, 'design' ) ;
#26 = EDGE_CURVE ( 'NONE', #233, #117, #64, .T. ) ;
#27 = VECTOR ( 'NONE', #128, 1000.000000000000000 ) ;
#28 = LOCAL_TIME ( 11, 17, 21.00000000000000000, #121 ) ;
#29 = EDGE_LOOP ( 'NONE', ( #79, #212, #31, #140 ) ) ;
#30 = CARTESIAN_POINT ( 'NONE',  ( 6.250000000000000000, 7.654042494670957606E-16, 630.0000000000000000 ) ) ;
#31 = ORIENTED_EDGE ( 'NONE', *, *, #34, .T. ) ;
#32 = APPROVAL_PERSON_ORGANIZATION ( #7, #158, #49 ) ;
#33 = ORIENTED_EDGE ( 'NONE', *, *, #63, .F. ) ;
#34 = EDGE_CURVE ( 'NONE', #74, #117, #174, .T. ) ;
#35 = PERSON_AND_ORGANIZATION ( #248, #99 ) ;
#36 = FACE_OUTER_BOUND ( 'NONE', #95, .T. ) ;
#37 = AXIS2_PLACEMENT_3D ( 'NONE', #80, #149, #220 ) ;
#38 = ORIENTED_EDGE ( 'NONE', *, *, #251, .F. ) ;
#39 = CC_DESIGN_APPROVAL ( #182, ( #9 ) ) ;
#40 = APPROVAL ( #171, 'NEURÈENÝ' ) ;
#41 = CARTESIAN_POINT ( 'NONE',  ( 0.000000000000000000, 0.000000000000000000, 7.000000000000000000 ) ) ;
#42 = CYLINDRICAL_SURFACE ( 'NONE', #107, 6.250000000000000000 ) ;
#43 = DIRECTION ( 'NONE',  ( 1.000000000000000000, 0.000000000000000000, 0.000000000000000000 ) ) ;
#44 = AXIS2_PLACEMENT_3D ( 'NONE', #22, #164, #241 ) ;
#45 = PRODUCT ( '0ad4', '0ad4', '', ( #209 ) ) ;
#46 = ADVANCED_FACE ( 'NONE', ( #105 ), #19, .T. ) ;
#47 = CIRCLE ( 'NONE', #44, 9.000000000000000000 ) ;
#48 = LOCAL_TIME ( 11, 17, 21.00000000000000000, #211 ) ;
#49 = APPROVAL_ROLE ( '' ) ;
#50 = VERTEX_POINT ( 'NONE', #60 ) ;
#51 = CIRCLE ( 'NONE', #72, 9.000000000000000000 ) ;
#52 = FACE_OUTER_BOUND ( 'NONE', #208, .T. ) ;
#53 = ORIENTED_EDGE ( 'NONE', *, *, #165, .T. ) ;
#54 =( NAMED_UNIT ( * ) PLANE_ANGLE_UNIT ( ) SI_UNIT ( $, .RADIAN. ) );
#55 = ORIENTED_EDGE ( 'NONE', *, *, #70, .T. ) ;
#56 = ORIENTED_EDGE ( 'NONE', *, *, #185, .F. ) ;
#57 = APPROVAL_DATE_TIME ( #73, #40 ) ;
#58 = DIRECTION ( 'NONE',  ( -0.000000000000000000, -0.000000000000000000, -1.000000000000000000 ) ) ;
#59 = COORDINATED_UNIVERSAL_TIME_OFFSET ( 1, 0, .AHEAD. ) ;
#60 = CARTESIAN_POINT ( 'NONE',  ( 9.000000000000000000, 1.102182119232617714E-15, 7.000000000000000000 ) ) ;
#61 = CC_DESIGN_APPROVAL ( #40, ( #87 ) ) ;
#62 = CARTESIAN_POINT ( 'NONE',  ( 0.000000000000000000, 0.000000000000000000, 7.000000000000000000 ) ) ;
#63 = EDGE_CURVE ( 'NONE', #229, #74, #213, .T. ) ;
#64 = LINE ( 'NONE', #146, #152 ) ;
#65 = ORIENTED_EDGE ( 'NONE', *, *, #12, .T. ) ;
#66 = AXIS2_PLACEMENT_3D ( 'NONE', #201, #223, #106 ) ;
#67 = EDGE_CURVE ( 'NONE', #232, #24, #163, .T. ) ;
#68 = CIRCLE ( 'NONE', #66, 6.250000000000000000 ) ;
#69 = DATE_AND_TIME ( #186, #48 ) ;
#70 = EDGE_CURVE ( 'NONE', #233, #229, #138, .T. ) ;
#71 = DATE_TIME_ROLE ( 'creation_date' ) ;
#72 = AXIS2_PLACEMENT_3D ( 'NONE', #3, #224, #4 ) ;
#73 = DATE_AND_TIME ( #249, #168 ) ;
#74 = VERTEX_POINT ( 'NONE', #157 ) ;
#75 = DATE_AND_TIME ( #13, #112 ) ;
#76 = AXIS2_PLACEMENT_3D ( 'NONE', #243, #228, #114 ) ;
#77 = CARTESIAN_POINT ( 'NONE',  ( -9.000000000000000000, 0.000000000000000000, 0.000000000000000000 ) ) ;
#78 = PERSON_AND_ORGANIZATION_ROLE ( 'creator' ) ;
#79 = ORIENTED_EDGE ( 'NONE', *, *, #129, .F. ) ;
#80 = CARTESIAN_POINT ( 'NONE',  ( 0.000000000000000000, 0.000000000000000000, 0.000000000000000000 ) ) ;
#81 = CIRCLE ( 'NONE', #76, 9.000000000000000000 ) ;
#82 = CARTESIAN_POINT ( 'NONE',  ( 0.000000000000000000, 0.000000000000000000, 630.0000000000000000 ) ) ;
#83 = CC_DESIGN_APPROVAL ( #158, ( #130 ) ) ;
#84 = UNCERTAINTY_MEASURE_WITH_UNIT (LENGTH_MEASURE( 1.000000000000000082E-05 ), #203, 'distance_accuracy_value', 'NONE');
#85 = CALENDAR_DATE ( 2023, 13, 2 ) ;
#86 = CARTESIAN_POINT ( 'NONE',  ( -6.250000000000000000, 0.000000000000000000, 7.000000000000000000 ) ) ;
#87 = PRODUCT_DEFINITION ( 'NEZNÁMÝ', '', #130, #25 ) ;
#88 = DIRECTION ( 'NONE',  ( 0.000000000000000000, 0.000000000000000000, 1.000000000000000000 ) ) ;
#89 = DIRECTION ( 'NONE',  ( 1.000000000000000000, 0.000000000000000000, 0.000000000000000000 ) ) ;
#90 = CALENDAR_DATE ( 2023, 13, 2 ) ;
#91 = CARTESIAN_POINT ( 'NONE',  ( 0.000000000000000000, 0.000000000000000000, 7.000000000000000000 ) ) ;
#92 = AXIS2_PLACEMENT_3D ( 'NONE', #41, #104, #236 ) ;
#93 = DIRECTION ( 'NONE',  ( 1.000000000000000000, 0.000000000000000000, -0.000000000000000000 ) ) ;
#94 = CC_DESIGN_SECURITY_CLASSIFICATION ( #9, ( #130 ) ) ;
#95 = EDGE_LOOP ( 'NONE', ( #56, #252, #172, #10 ) ) ;
#96 = COORDINATED_UNIVERSAL_TIME_OFFSET ( 1, 0, .AHEAD. ) ;
#97 = ORIENTED_EDGE ( 'NONE', *, *, #251, .T. ) ;
#98 = SHAPE_DEFINITION_REPRESENTATION ( #222, #143 ) ;
#99 = ORGANIZATION ( 'NEURÈENÝ', 'NEURÈENÝ', '' ) ;
#100 = PLANE ( 'NONE',  #156 ) ;
#101 = DIRECTION ( 'NONE',  ( 0.000000000000000000, 0.000000000000000000, 1.000000000000000000 ) ) ;
#102 = PERSON_AND_ORGANIZATION ( #248, #99 ) ;
#103 = VECTOR ( 'NONE', #144, 1000.000000000000000 ) ;
#104 = DIRECTION ( 'NONE',  ( -0.000000000000000000, -0.000000000000000000, -1.000000000000000000 ) ) ;
#105 = FACE_OUTER_BOUND ( 'NONE', #135, .T. ) ;
#106 = DIRECTION ( 'NONE',  ( 1.000000000000000000, 0.000000000000000000, 0.000000000000000000 ) ) ;
#107 = AXIS2_PLACEMENT_3D ( 'NONE', #82, #176, #239 ) ;
#108 = ADVANCED_FACE ( 'NONE', ( #215 ), #42, .T. ) ;
#109 = PERSON_AND_ORGANIZATION_ROLE ( 'creator' ) ;
#110 =( GEOMETRIC_REPRESENTATION_CONTEXT ( 3 ) GLOBAL_UNCERTAINTY_ASSIGNED_CONTEXT ( ( #84 ) ) GLOBAL_UNIT_ASSIGNED_CONTEXT ( ( #203, #54, #189 ) ) REPRESENTATION_CONTEXT ( 'NONE', 'WORKASPACE' ) );
#111 = CC_DESIGN_PERSON_AND_ORGANIZATION_ASSIGNMENT ( #35, #16, ( #130 ) ) ;
#112 = LOCAL_TIME ( 11, 17, 21.00000000000000000, #59 ) ;
#113 = PERSON_AND_ORGANIZATION ( #248, #99 ) ;
#114 = DIRECTION ( 'NONE',  ( 1.000000000000000000, 0.000000000000000000, 0.000000000000000000 ) ) ;
#115 = EDGE_LOOP ( 'NONE', ( #170, #161 ) ) ;
#116 = DIRECTION ( 'NONE',  ( 0.000000000000000000, 0.000000000000000000, 1.000000000000000000 ) ) ;
#117 = VERTEX_POINT ( 'NONE', #86 ) ;
#118 = CC_DESIGN_DATE_AND_TIME_ASSIGNMENT ( #218, #179, ( #9 ) ) ;
#119 = EDGE_LOOP ( 'NONE', ( #33, #210, #190, #65 ) ) ;
#120 = ADVANCED_FACE ( 'NONE', ( #36 ), #219, .T. ) ;
#121 = COORDINATED_UNIVERSAL_TIME_OFFSET ( 1, 0, .AHEAD. ) ;
#122 = EDGE_CURVE ( 'NONE', #227, #24, #47, .T. ) ;
#123 = LINE ( 'NONE', #160, #27 ) ;
#124 = SECURITY_CLASSIFICATION_LEVEL ( 'unclassified' ) ;
#125 = EDGE_LOOP ( 'NONE', ( #38, #134 ) ) ;
#126 = DIRECTION ( 'NONE',  ( -0.000000000000000000, -0.000000000000000000, -1.000000000000000000 ) ) ;
#127 = ADVANCED_FACE ( 'NONE', ( #141 ), #254, .F. ) ;
#128 = DIRECTION ( 'NONE',  ( -0.000000000000000000, -0.000000000000000000, -1.000000000000000000 ) ) ;
#129 = EDGE_CURVE ( 'NONE', #229, #233, #68, .T. ) ;
#130 = PRODUCT_DEFINITION_FORMATION_WITH_SPECIFIED_SOURCE ( 'LIBOVOLNÝ', '', #45, .NOT_KNOWN. ) ;
#131 = CC_DESIGN_PERSON_AND_ORGANIZATION_ASSIGNMENT ( #173, #78, ( #130 ) ) ;
#132 = COORDINATED_UNIVERSAL_TIME_OFFSET ( 1, 0, .AHEAD. ) ;
#133 = CARTESIAN_POINT ( 'NONE',  ( -6.250000000000000000, 0.000000000000000000, 630.0000000000000000 ) ) ;
#134 = ORIENTED_EDGE ( 'NONE', *, *, #122, .F. ) ;
#135 = EDGE_LOOP ( 'NONE', ( #195, #137, #155, #97 ) ) ;
#136 = APPLICATION_PROTOCOL_DEFINITION ( 'international standard', 'config_control_design', 1994, #235 ) ;
#137 = ORIENTED_EDGE ( 'NONE', *, *, #165, .F. ) ;
#138 = CIRCLE ( 'NONE', #221, 6.250000000000000000 ) ;
#139 = PERSON_AND_ORGANIZATION ( #248, #99 ) ;
#140 = ORIENTED_EDGE ( 'NONE', *, *, #26, .F. ) ;
#141 = FACE_OUTER_BOUND ( 'NONE', #125, .T. ) ;
#142 = PRODUCT_RELATED_PRODUCT_CATEGORY ( 'detail', '', ( #45 ) ) ;
#143 = ADVANCED_BREP_SHAPE_REPRESENTATION ( '0ad4', ( #181, #242 ), #110 ) ;
#144 = DIRECTION ( 'NONE',  ( -0.000000000000000000, -0.000000000000000000, -1.000000000000000000 ) ) ;
#145 = CIRCLE ( 'NONE', #187, 9.000000000000000000 ) ;
#146 = CARTESIAN_POINT ( 'NONE',  ( -6.250000000000000000, 0.000000000000000000, 630.0000000000000000 ) ) ;
#147 = DIRECTION ( 'NONE',  ( 1.000000000000000000, 0.000000000000000000, 0.000000000000000000 ) ) ;
#148 = APPROVAL_DATE_TIME ( #250, #158 ) ;
#149 = DIRECTION ( 'NONE',  ( 0.000000000000000000, 0.000000000000000000, 1.000000000000000000 ) ) ;
#150 = APPLICATION_PROTOCOL_DEFINITION ( 'international standard', 'config_control_design', 1994, #240 ) ;
#151 = CARTESIAN_POINT ( 'NONE',  ( 9.000000000000000000, 1.102182119232617714E-15, 0.000000000000000000 ) ) ;
#152 = VECTOR ( 'NONE', #175, 1000.000000000000000 ) ;
#153 = CARTESIAN_POINT ( 'NONE',  ( 0.000000000000000000, 0.000000000000000000, 630.0000000000000000 ) ) ;
#154 = APPROVAL_ROLE ( '' ) ;
#155 = ORIENTED_EDGE ( 'NONE', *, *, #67, .T. ) ;
#156 = AXIS2_PLACEMENT_3D ( 'NONE', #17, #237, #2 ) ;
#157 = CARTESIAN_POINT ( 'NONE',  ( 6.250000000000000000, 7.654042494670957606E-16, 7.000000000000000000 ) ) ;
#158 = APPROVAL ( #226, 'NEURÈENÝ' ) ;
#159 = PERSON_AND_ORGANIZATION_ROLE ( 'classification_officer' ) ;
#160 = CARTESIAN_POINT ( 'NONE',  ( 9.000000000000000000, 1.102182119232617714E-15, 7.000000000000000000 ) ) ;
#161 = ORIENTED_EDGE ( 'NONE', *, *, #34, .F. ) ;
#162 = AXIS2_PLACEMENT_3D ( 'NONE', #62, #255, #147 ) ;
#163 = LINE ( 'NONE', #198, #103 ) ;
#164 = DIRECTION ( 'NONE',  ( 0.000000000000000000, 0.000000000000000000, 1.000000000000000000 ) ) ;
#165 = EDGE_CURVE ( 'NONE', #232, #50, #51, .T. ) ;
#166 = APPROVAL_PERSON_ORGANIZATION ( #196, #182, #18 ) ;
#167 = FACE_OUTER_BOUND ( 'NONE', #119, .T. ) ;
#168 = LOCAL_TIME ( 11, 17, 21.00000000000000000, #96 ) ;
#169 = CARTESIAN_POINT ( 'NONE',  ( -9.000000000000000000, 0.000000000000000000, 7.000000000000000000 ) ) ;
#170 = ORIENTED_EDGE ( 'NONE', *, *, #12, .F. ) ;
#171 = APPROVAL_STATUS ( 'not_yet_approved' ) ;
#172 = ORIENTED_EDGE ( 'NONE', *, *, #122, .T. ) ;
#173 = PERSON_AND_ORGANIZATION ( #248, #99 ) ;
#174 = CIRCLE ( 'NONE', #238, 6.250000000000000000 ) ;
#175 = DIRECTION ( 'NONE',  ( -0.000000000000000000, -0.000000000000000000, -1.000000000000000000 ) ) ;
#176 = DIRECTION ( 'NONE',  ( -0.000000000000000000, -0.000000000000000000, -1.000000000000000000 ) ) ;
#177 = DIRECTION ( 'NONE',  ( 1.000000000000000000, 0.000000000000000000, 0.000000000000000000 ) ) ;
#178 = AXIS2_PLACEMENT_3D ( 'NONE', #234, #126, #199 ) ;
#179 = DATE_TIME_ROLE ( 'classification_date' ) ;
#180 = CARTESIAN_POINT ( 'NONE',  ( 6.250000000000000000, 7.654042494670957606E-16, 630.0000000000000000 ) ) ;
#181 = MANIFOLD_SOLID_BREP ( 'Pøidat vysunutím3', #204 ) ;
#182 = APPROVAL ( #214, 'NEURÈENÝ' ) ;
#183 = CARTESIAN_POINT ( 'NONE',  ( 0.000000000000000000, 0.000000000000000000, 7.000000000000000000 ) ) ;
#184 = VECTOR ( 'NONE', #58, 1000.000000000000000 ) ;
#185 = EDGE_CURVE ( 'NONE', #50, #232, #145, .T. ) ;
#186 = CALENDAR_DATE ( 2023, 13, 2 ) ;
#187 = AXIS2_PLACEMENT_3D ( 'NONE', #183, #88, #89 ) ;
#188 = PLANE ( 'NONE',  #216 ) ;
#189 =( NAMED_UNIT ( * ) SI_UNIT ( $, .STERADIAN. ) SOLID_ANGLE_UNIT ( ) );
#190 = ORIENTED_EDGE ( 'NONE', *, *, #26, .T. ) ;
#191 = DIRECTION ( 'NONE',  ( -0.000000000000000000, -0.000000000000000000, -1.000000000000000000 ) ) ;
#192 = LOCAL_TIME ( 11, 17, 21.00000000000000000, #132 ) ;
#193 = PERSON_AND_ORGANIZATION_ROLE ( 'design_owner' ) ;
#194 = APPROVAL_DATE_TIME ( #75, #182 ) ;
#195 = ORIENTED_EDGE ( 'NONE', *, *, #20, .F. ) ;
#196 = PERSON_AND_ORGANIZATION ( #248, #99 ) ;
#197 = DIRECTION ( 'NONE',  ( 0.000000000000000000, 0.000000000000000000, 1.000000000000000000 ) ) ;
#198 = CARTESIAN_POINT ( 'NONE',  ( -9.000000000000000000, 0.000000000000000000, 7.000000000000000000 ) ) ;
#199 = DIRECTION ( 'NONE',  ( -1.000000000000000000, 0.000000000000000000, 0.000000000000000000 ) ) ;
#200 = ADVANCED_FACE ( 'NONE', ( #167 ), #230, .T. ) ;
#201 = CARTESIAN_POINT ( 'NONE',  ( 0.000000000000000000, 0.000000000000000000, 630.0000000000000000 ) ) ;
#202 = CC_DESIGN_DATE_AND_TIME_ASSIGNMENT ( #69, #71, ( #87 ) ) ;
#203 =( LENGTH_UNIT ( ) NAMED_UNIT ( * ) SI_UNIT ( .MILLI., .METRE. ) );
#204 = CLOSED_SHELL ( 'NONE', ( #108, #120, #46, #207, #127, #200, #1 ) ) ;
#205 = ORIENTED_EDGE ( 'NONE', *, *, #185, .T. ) ;
#206 = FACE_BOUND ( 'NONE', #115, .T. ) ;
#207 = ADVANCED_FACE ( 'NONE', ( #206, #52 ), #188, .T. ) ;
#208 = EDGE_LOOP ( 'NONE', ( #53, #205 ) ) ;
#209 = MECHANICAL_CONTEXT ( 'NONE', #235, 'mechanical' ) ;
#210 = ORIENTED_EDGE ( 'NONE', *, *, #70, .F. ) ;
#211 = COORDINATED_UNIVERSAL_TIME_OFFSET ( 1, 0, .AHEAD. ) ;
#212 = ORIENTED_EDGE ( 'NONE', *, *, #63, .T. ) ;
#213 = LINE ( 'NONE', #180, #184 ) ;
#214 = APPROVAL_STATUS ( 'not_yet_approved' ) ;
#215 = FACE_OUTER_BOUND ( 'NONE', #29, .T. ) ;
#216 = AXIS2_PLACEMENT_3D ( 'NONE', #91, #8, #93 ) ;
#217 = CARTESIAN_POINT ( 'NONE',  ( 0.000000000000000000, 0.000000000000000000, 7.000000000000000000 ) ) ;
#218 = DATE_AND_TIME ( #85, #28 ) ;
#219 = CYLINDRICAL_SURFACE ( 'NONE', #178, 9.000000000000000000 ) ;
#220 = DIRECTION ( 'NONE',  ( 1.000000000000000000, 0.000000000000000000, -0.000000000000000000 ) ) ;
#221 = AXIS2_PLACEMENT_3D ( 'NONE', #21, #101, #177 ) ;
#222 = PRODUCT_DEFINITION_SHAPE ( 'NONE', 'NONE',  #87 ) ;
#223 = DIRECTION ( 'NONE',  ( 0.000000000000000000, 0.000000000000000000, 1.000000000000000000 ) ) ;
#224 = DIRECTION ( 'NONE',  ( 0.000000000000000000, 0.000000000000000000, 1.000000000000000000 ) ) ;
#225 = CIRCLE ( 'NONE', #162, 6.250000000000000000 ) ;
#226 = APPROVAL_STATUS ( 'not_yet_approved' ) ;
#227 = VERTEX_POINT ( 'NONE', #151 ) ;
#228 = DIRECTION ( 'NONE',  ( 0.000000000000000000, 0.000000000000000000, 1.000000000000000000 ) ) ;
#229 = VERTEX_POINT ( 'NONE', #30 ) ;
#230 = CYLINDRICAL_SURFACE ( 'NONE', #23, 6.250000000000000000 ) ;
#231 = EDGE_LOOP ( 'NONE', ( #55, #14 ) ) ;
#232 = VERTEX_POINT ( 'NONE', #169 ) ;
#233 = VERTEX_POINT ( 'NONE', #133 ) ;
#234 = CARTESIAN_POINT ( 'NONE',  ( 0.000000000000000000, 0.000000000000000000, 7.000000000000000000 ) ) ;
#235 = APPLICATION_CONTEXT ( 'configuration controlled 3d designs of mechanical parts and assemblies' ) ;
#236 = DIRECTION ( 'NONE',  ( -1.000000000000000000, 0.000000000000000000, 0.000000000000000000 ) ) ;
#237 = DIRECTION ( 'NONE',  ( 0.000000000000000000, 0.000000000000000000, 1.000000000000000000 ) ) ;
#238 = AXIS2_PLACEMENT_3D ( 'NONE', #217, #197, #43 ) ;
#239 = DIRECTION ( 'NONE',  ( -1.000000000000000000, 0.000000000000000000, 0.000000000000000000 ) ) ;
#240 = APPLICATION_CONTEXT ( 'configuration controlled 3d designs of mechanical parts and assemblies' ) ;
#241 = DIRECTION ( 'NONE',  ( 1.000000000000000000, 0.000000000000000000, 0.000000000000000000 ) ) ;
#242 = AXIS2_PLACEMENT_3D ( 'NONE', #244, #116, #247 ) ;
#243 = CARTESIAN_POINT ( 'NONE',  ( 0.000000000000000000, 0.000000000000000000, 0.000000000000000000 ) ) ;
#244 = CARTESIAN_POINT ( 'NONE',  ( 0.000000000000000000, 0.000000000000000000, 0.000000000000000000 ) ) ;
#245 = APPROVAL_PERSON_ORGANIZATION ( #11, #40, #154 ) ;
#246 = CC_DESIGN_PERSON_AND_ORGANIZATION_ASSIGNMENT ( #139, #109, ( #87 ) ) ;
#247 = DIRECTION ( 'NONE',  ( 1.000000000000000000, 0.000000000000000000, 0.000000000000000000 ) ) ;
#248 = PERSON ( 'NEURÈENÝ', 'NEURÈENÝ', 'NEURÈENÝ', ('NEURÈENÝ'), ('NEURÈENÝ'), ('NEURÈENÝ') ) ;
#249 = CALENDAR_DATE ( 2023, 13, 2 ) ;
#250 = DATE_AND_TIME ( #90, #192 ) ;
#251 = EDGE_CURVE ( 'NONE', #24, #227, #81, .T. ) ;
#252 = ORIENTED_EDGE ( 'NONE', *, *, #20, .T. ) ;
#253 = FACE_OUTER_BOUND ( 'NONE', #231, .T. ) ;
#254 = PLANE ( 'NONE',  #37 ) ;
#255 = DIRECTION ( 'NONE',  ( 0.000000000000000000, 0.000000000000000000, 1.000000000000000000 ) ) ;
ENDSEC;
END-ISO-10303-21;
