ISO-10303-21;
HEADER;
FILE_DESCRIPTION (( 'STEP AP203' ),
    '1' );
FILE_NAME ('c511.STEP',
    '2023-02-13T12:55:31',
    ( '' ),
    ( '' ),
    'SwSTEP 2.0',
    'SolidWorks 2019',
    '' );
FILE_SCHEMA (( 'CONFIG_CONTROL_DESIGN' ));
ENDSEC;

DATA;
#1 = DIRECTION ( 'NONE',  ( 0.000000000000000000, 0.000000000000000000, 1.000000000000000000 ) ) ;
#2 = SHAPE_DEFINITION_REPRESENTATION ( #50, #146 ) ;
#3 = VERTEX_POINT ( 'NONE', #101 ) ;
#4 = DIRECTION ( 'NONE',  ( 1.000000000000000000, 0.000000000000000000, -0.000000000000000000 ) ) ;
#5 = VECTOR ( 'NONE', #46, 1000.000000000000000 ) ;
#6 = CYLINDRICAL_SURFACE ( 'NONE', #138, 4.099999999999999645 ) ;
#7 = PERSON_AND_ORGANIZATION_ROLE ( 'creator' ) ;
#8 =( LENGTH_UNIT ( ) NAMED_UNIT ( * ) SI_UNIT ( .MILLI., .METRE. ) );
#9 = VECTOR ( 'NONE', #67, 1000.000000000000000 ) ;
#10 = DIRECTION ( 'NONE',  ( 1.000000000000000000, 0.000000000000000000, 0.000000000000000000 ) ) ;
#11 = ORIENTED_EDGE ( 'NONE', *, *, #184, .F. ) ;
#12 = COORDINATED_UNIVERSAL_TIME_OFFSET ( 1, 0, .AHEAD. ) ;
#13 = EDGE_CURVE ( 'NONE', #149, #22, #153, .T. ) ;
#14 = AXIS2_PLACEMENT_3D ( 'NONE', #37, #148, #18 ) ;
#15 = FACE_BOUND ( 'NONE', #137, .T. ) ;
#16 = ADVANCED_FACE ( 'NONE', ( #180 ), #198, .T. ) ;
#17 = CIRCLE ( 'NONE', #194, 4.099999999999999645 ) ;
#18 = DIRECTION ( 'NONE',  ( 1.000000000000000000, 0.000000000000000000, -0.000000000000000000 ) ) ;
#19 = EDGE_LOOP ( 'NONE', ( #97, #157, #171, #115 ) ) ;
#20 = DIRECTION ( 'NONE',  ( -0.000000000000000000, -0.000000000000000000, -1.000000000000000000 ) ) ;
#21 = CC_DESIGN_APPROVAL ( #172, ( #120 ) ) ;
#22 = VERTEX_POINT ( 'NONE', #60 ) ;
#23 = PERSON_AND_ORGANIZATION ( #156, #61 ) ;
#24 = ADVANCED_FACE ( 'NONE', ( #203 ), #124, .T. ) ;
#25 = CIRCLE ( 'NONE', #168, 4.099999999999999645 ) ;
#26 = DATE_AND_TIME ( #222, #99 ) ;
#27 = CARTESIAN_POINT ( 'NONE',  ( 0.000000000000000000, 0.000000000000000000, 0.000000000000000000 ) ) ;
#28 = LINE ( 'NONE', #249, #9 ) ;
#29 = APPROVAL_DATE_TIME ( #26, #134 ) ;
#30 = DATE_AND_TIME ( #48, #133 ) ;
#31 = EDGE_LOOP ( 'NONE', ( #85, #215 ) ) ;
#32 = ORIENTED_EDGE ( 'NONE', *, *, #39, .T. ) ;
#33 = APPROVAL_ROLE ( '' ) ;
#34 = CARTESIAN_POINT ( 'NONE',  ( 0.000000000000000000, 0.000000000000000000, 5.000000000000000000 ) ) ;
#35 = CARTESIAN_POINT ( 'NONE',  ( 4.099999999999999645, 5.021051876504147385E-16, 100.0000000000000000 ) ) ;
#36 = UNCERTAINTY_MEASURE_WITH_UNIT (LENGTH_MEASURE( 1.000000000000000082E-05 ), #8, 'distance_accuracy_value', 'NONE');
#37 = CARTESIAN_POINT ( 'NONE',  ( 0.000000000000000000, 0.000000000000000000, 5.000000000000000000 ) ) ;
#39 = EDGE_CURVE ( 'NONE', #3, #217, #240, .T. ) ;
#38 = AXIS2_PLACEMENT_3D ( 'NONE', #59, #102, #214 ) ;
#40 = CIRCLE ( 'NONE', #224, 4.099999999999999645 ) ;
#41 = DIRECTION ( 'NONE',  ( 0.000000000000000000, 0.000000000000000000, 1.000000000000000000 ) ) ;
#42 = CARTESIAN_POINT ( 'NONE',  ( 4.099999999999999645, 5.021051876504147385E-16, 100.0000000000000000 ) ) ;
#43 = EDGE_CURVE ( 'NONE', #239, #116, #174, .T. ) ;
#44 = DIRECTION ( 'NONE',  ( 1.000000000000000000, 0.000000000000000000, 0.000000000000000000 ) ) ;
#45 = DIRECTION ( 'NONE',  ( -0.000000000000000000, -0.000000000000000000, -1.000000000000000000 ) ) ;
#46 = DIRECTION ( 'NONE',  ( -0.000000000000000000, -0.000000000000000000, -1.000000000000000000 ) ) ;
#47 = AXIS2_PLACEMENT_3D ( 'NONE', #70, #252, #147 ) ;
#48 = CALENDAR_DATE ( 2023, 13, 2 ) ;
#49 =( NAMED_UNIT ( * ) PLANE_ANGLE_UNIT ( ) SI_UNIT ( $, .RADIAN. ) );
#50 = PRODUCT_DEFINITION_SHAPE ( 'NONE', 'NONE',  #242 ) ;
#51 = CARTESIAN_POINT ( 'NONE',  ( 0.000000000000000000, 0.000000000000000000, 5.000000000000000000 ) ) ;
#52 = CALENDAR_DATE ( 2023, 13, 2 ) ;
#53 = DATE_AND_TIME ( #52, #66 ) ;
#54 = DIRECTION ( 'NONE',  ( 0.000000000000000000, 0.000000000000000000, 1.000000000000000000 ) ) ;
#55 = ORIENTED_EDGE ( 'NONE', *, *, #202, .F. ) ;
#56 = DIRECTION ( 'NONE',  ( 1.000000000000000000, 0.000000000000000000, 0.000000000000000000 ) ) ;
#57 = EDGE_CURVE ( 'NONE', #116, #239, #183, .T. ) ;
#58 = DIRECTION ( 'NONE',  ( -1.000000000000000000, 0.000000000000000000, 0.000000000000000000 ) ) ;
#59 = CARTESIAN_POINT ( 'NONE',  ( 0.000000000000000000, 0.000000000000000000, 5.000000000000000000 ) ) ;
#60 = CARTESIAN_POINT ( 'NONE',  ( 4.099999999999999645, 5.021051876504147385E-16, 5.000000000000000000 ) ) ;
#61 = ORGANIZATION ( 'NEURÈENÝ', 'NEURÈENÝ', '' ) ;
#62 = DIRECTION ( 'NONE',  ( 0.000000000000000000, 0.000000000000000000, 1.000000000000000000 ) ) ;
#63 = EDGE_CURVE ( 'NONE', #22, #149, #17, .T. ) ;
#64 = VECTOR ( 'NONE', #163, 1000.000000000000000 ) ;
#65 = CARTESIAN_POINT ( 'NONE',  ( 0.000000000000000000, 0.000000000000000000, 5.000000000000000000 ) ) ;
#66 = LOCAL_TIME ( 13, 55, 31.00000000000000000, #12 ) ;
#67 = DIRECTION ( 'NONE',  ( -0.000000000000000000, -0.000000000000000000, -1.000000000000000000 ) ) ;
#68 = PERSON_AND_ORGANIZATION_ROLE ( 'classification_officer' ) ;
#69 = EDGE_CURVE ( 'NONE', #116, #217, #162, .T. ) ;
#70 = CARTESIAN_POINT ( 'NONE',  ( 0.000000000000000000, 0.000000000000000000, 5.000000000000000000 ) ) ;
#71 = CARTESIAN_POINT ( 'NONE',  ( 0.000000000000000000, 0.000000000000000000, 0.000000000000000000 ) ) ;
#72 = MANIFOLD_SOLID_BREP ( 'Pøidat vysunutím3', #128 ) ;
#73 = PERSON_AND_ORGANIZATION ( #156, #61 ) ;
#74 = CC_DESIGN_PERSON_AND_ORGANIZATION_ASSIGNMENT ( #107, #108, ( #242 ) ) ;
#75 = PLANE ( 'NONE',  #233 ) ;
#76 = ORIENTED_EDGE ( 'NONE', *, *, #136, .F. ) ;
#77 = ORIENTED_EDGE ( 'NONE', *, *, #13, .F. ) ;
#78 = LOCAL_TIME ( 13, 55, 31.00000000000000000, #123 ) ;
#79 = MECHANICAL_CONTEXT ( 'NONE', #144, 'mechanical' ) ;
#80 = CALENDAR_DATE ( 2023, 13, 2 ) ;
#81 = APPROVAL_STATUS ( 'not_yet_approved' ) ;
#82 = CC_DESIGN_DATE_AND_TIME_ASSIGNMENT ( #158, #210, ( #242 ) ) ;
#83 = APPLICATION_PROTOCOL_DEFINITION ( 'international standard', 'config_control_design', 1994, #144 ) ;
#84 = SECURITY_CLASSIFICATION_LEVEL ( 'unclassified' ) ;
#85 = ORIENTED_EDGE ( 'NONE', *, *, #143, .T. ) ;
#86 = AXIS2_PLACEMENT_3D ( 'NONE', #34, #20, #155 ) ;
#87 = ORIENTED_EDGE ( 'NONE', *, *, #164, .F. ) ;
#88 = EDGE_CURVE ( 'NONE', #241, #22, #219, .T. ) ;
#89 = CC_DESIGN_APPROVAL ( #134, ( #242 ) ) ;
#90 = APPROVAL_STATUS ( 'not_yet_approved' ) ;
#91 = FACE_OUTER_BOUND ( 'NONE', #92, .T. ) ;
#92 = EDGE_LOOP ( 'NONE', ( #236, #238 ) ) ;
#93 = FACE_OUTER_BOUND ( 'NONE', #122, .T. ) ;
#94 = CARTESIAN_POINT ( 'NONE',  ( 0.000000000000000000, 0.000000000000000000, 100.0000000000000000 ) ) ;
#95 = CYLINDRICAL_SURFACE ( 'NONE', #154, 7.000000000000000000 ) ;
#96 = DIRECTION ( 'NONE',  ( 1.000000000000000000, 0.000000000000000000, 0.000000000000000000 ) ) ;
#97 = ORIENTED_EDGE ( 'NONE', *, *, #88, .F. ) ;
#98 = CALENDAR_DATE ( 2023, 13, 2 ) ;
#99 = LOCAL_TIME ( 13, 55, 31.00000000000000000, #105 ) ;
#100 = CARTESIAN_POINT ( 'NONE',  ( 0.000000000000000000, 0.000000000000000000, 5.000000000000000000 ) ) ;
#101 = CARTESIAN_POINT ( 'NONE',  ( -7.000000000000000000, 0.000000000000000000, 0.000000000000000000 ) ) ;
#102 = DIRECTION ( 'NONE',  ( 0.000000000000000000, 0.000000000000000000, 1.000000000000000000 ) ) ;
#103 = CC_DESIGN_PERSON_AND_ORGANIZATION_ASSIGNMENT ( #205, #68, ( #120 ) ) ;
#104 = CC_DESIGN_APPROVAL ( #255, ( #182 ) ) ;
#105 = COORDINATED_UNIVERSAL_TIME_OFFSET ( 1, 0, .AHEAD. ) ;
#106 = PRODUCT ( 'c511', 'c511', '', ( #79 ) ) ;
#107 = PERSON_AND_ORGANIZATION ( #156, #61 ) ;
#108 = PERSON_AND_ORGANIZATION_ROLE ( 'creator' ) ;
#109 = CARTESIAN_POINT ( 'NONE',  ( 7.000000000000000000, 8.572527594031473190E-16, 5.000000000000000000 ) ) ;
#110 = DATE_TIME_ROLE ( 'classification_date' ) ;
#111 = DIRECTION ( 'NONE',  ( 1.000000000000000000, 0.000000000000000000, 0.000000000000000000 ) ) ;
#112 = ADVANCED_FACE ( 'NONE', ( #216 ), #113, .F. ) ;
#113 = PLANE ( 'NONE',  #197 ) ;
#114 = LINE ( 'NONE', #186, #129 ) ;
#115 = ORIENTED_EDGE ( 'NONE', *, *, #13, .T. ) ;
#116 = VERTEX_POINT ( 'NONE', #209 ) ;
#117 = DIRECTION ( 'NONE',  ( 0.000000000000000000, 0.000000000000000000, 1.000000000000000000 ) ) ;
#118 = CARTESIAN_POINT ( 'NONE',  ( 0.000000000000000000, 0.000000000000000000, 100.0000000000000000 ) ) ;
#119 = ORIENTED_EDGE ( 'NONE', *, *, #202, .T. ) ;
#120 = SECURITY_CLASSIFICATION ( '', '', #84 ) ;
#121 = APPROVAL_DATE_TIME ( #220, #172 ) ;
#122 = EDGE_LOOP ( 'NONE', ( #176, #213, #150, #55 ) ) ;
#123 = COORDINATED_UNIVERSAL_TIME_OFFSET ( 1, 0, .AHEAD. ) ;
#124 = CYLINDRICAL_SURFACE ( 'NONE', #247, 4.099999999999999645 ) ;
#125 = PERSON_AND_ORGANIZATION_ROLE ( 'design_owner' ) ;
#126 = ADVANCED_FACE ( 'NONE', ( #188 ), #75, .T. ) ;
#127 = DIRECTION ( 'NONE',  ( -0.000000000000000000, -0.000000000000000000, -1.000000000000000000 ) ) ;
#128 = CLOSED_SHELL ( 'NONE', ( #181, #227, #16, #204, #112, #24, #126 ) ) ;
#129 = VECTOR ( 'NONE', #187, 1000.000000000000000 ) ;
#130 = PRODUCT_RELATED_PRODUCT_CATEGORY ( 'detail', '', ( #106 ) ) ;
#131 = AXIS2_PLACEMENT_3D ( 'NONE', #65, #196, #161 ) ;
#132 = LOCAL_TIME ( 13, 55, 31.00000000000000000, #141 ) ;
#133 = LOCAL_TIME ( 13, 55, 31.00000000000000000, #230 ) ;
#134 = APPROVAL ( #81, 'NEURÈENÝ' ) ;
#135 = AXIS2_PLACEMENT_3D ( 'NONE', #243, #62, #226 ) ;
#136 = EDGE_CURVE ( 'NONE', #217, #3, #248, .T. ) ;
#137 = EDGE_LOOP ( 'NONE', ( #77, #208 ) ) ;
#138 = AXIS2_PLACEMENT_3D ( 'NONE', #142, #225, #206 ) ;
#139 = ORIENTED_EDGE ( 'NONE', *, *, #63, .T. ) ;
#140 = CARTESIAN_POINT ( 'NONE',  ( -7.000000000000000000, 0.000000000000000000, 5.000000000000000000 ) ) ;
#141 = COORDINATED_UNIVERSAL_TIME_OFFSET ( 1, 0, .AHEAD. ) ;
#142 = CARTESIAN_POINT ( 'NONE',  ( 0.000000000000000000, 0.000000000000000000, 100.0000000000000000 ) ) ;
#143 = EDGE_CURVE ( 'NONE', #189, #241, #25, .T. ) ;
#144 = APPLICATION_CONTEXT ( 'configuration controlled 3d designs of mechanical parts and assemblies' ) ;
#145 = CC_DESIGN_PERSON_AND_ORGANIZATION_ASSIGNMENT ( #253, #185, ( #182 ) ) ;
#146 = ADVANCED_BREP_SHAPE_REPRESENTATION ( 'c511', ( #72, #212 ), #178 ) ;
#147 = DIRECTION ( 'NONE',  ( 1.000000000000000000, 0.000000000000000000, 0.000000000000000000 ) ) ;
#148 = DIRECTION ( 'NONE',  ( 0.000000000000000000, 0.000000000000000000, 1.000000000000000000 ) ) ;
#149 = VERTEX_POINT ( 'NONE', #173 ) ;
#150 = ORIENTED_EDGE ( 'NONE', *, *, #136, .T. ) ;
#151 = CARTESIAN_POINT ( 'NONE',  ( 0.000000000000000000, 0.000000000000000000, 100.0000000000000000 ) ) ;
#152 = PLANE ( 'NONE',  #14 ) ;
#153 = CIRCLE ( 'NONE', #38, 4.099999999999999645 ) ;
#154 = AXIS2_PLACEMENT_3D ( 'NONE', #100, #127, #58 ) ;
#155 = DIRECTION ( 'NONE',  ( -1.000000000000000000, 0.000000000000000000, 0.000000000000000000 ) ) ;
#156 = PERSON ( 'NEURÈENÝ', 'NEURÈENÝ', 'NEURÈENÝ', ('NEURÈENÝ'), ('NEURÈENÝ'), ('NEURÈENÝ') ) ;
#157 = ORIENTED_EDGE ( 'NONE', *, *, #143, .F. ) ;
#158 = DATE_AND_TIME ( #80, #78 ) ;
#159 = CC_DESIGN_SECURITY_CLASSIFICATION ( #120, ( #182 ) ) ;
#160 = DESIGN_CONTEXT ( 'detailed design', #177, 'design' ) ;
#161 = DIRECTION ( 'NONE',  ( 1.000000000000000000, 0.000000000000000000, 0.000000000000000000 ) ) ;
#162 = LINE ( 'NONE', #109, #5 ) ;
#163 = DIRECTION ( 'NONE',  ( -0.000000000000000000, -0.000000000000000000, -1.000000000000000000 ) ) ;
#164 = EDGE_CURVE ( 'NONE', #241, #189, #40, .T. ) ;
#165 = EDGE_LOOP ( 'NONE', ( #87, #195, #139, #11 ) ) ;
#166 = DIRECTION ( 'NONE',  ( 0.000000000000000000, 0.000000000000000000, 1.000000000000000000 ) ) ;
#167 = CARTESIAN_POINT ( 'NONE',  ( 7.000000000000000000, 8.572527594031473190E-16, 0.000000000000000000 ) ) ;
#168 = AXIS2_PLACEMENT_3D ( 'NONE', #94, #117, #96 ) ;
#169 = EDGE_LOOP ( 'NONE', ( #191, #218, #119, #32 ) ) ;
#170 = APPROVAL_DATE_TIME ( #53, #255 ) ;
#171 = ORIENTED_EDGE ( 'NONE', *, *, #184, .T. ) ;
#172 = APPROVAL ( #192, 'NEURÈENÝ' ) ;
#173 = CARTESIAN_POINT ( 'NONE',  ( -4.099999999999999645, 0.000000000000000000, 5.000000000000000000 ) ) ;
#174 = CIRCLE ( 'NONE', #131, 7.000000000000000000 ) ;
#175 = APPROVAL_ROLE ( '' ) ;
#176 = ORIENTED_EDGE ( 'NONE', *, *, #57, .F. ) ;
#177 = APPLICATION_CONTEXT ( 'configuration controlled 3d designs of mechanical parts and assemblies' ) ;
#178 =( GEOMETRIC_REPRESENTATION_CONTEXT ( 3 ) GLOBAL_UNCERTAINTY_ASSIGNED_CONTEXT ( ( #36 ) ) GLOBAL_UNIT_ASSIGNED_CONTEXT ( ( #8, #49, #228 ) ) REPRESENTATION_CONTEXT ( 'NONE', 'WORKASPACE' ) );
#179 = CC_DESIGN_PERSON_AND_ORGANIZATION_ASSIGNMENT ( #223, #125, ( #106 ) ) ;
#180 = FACE_OUTER_BOUND ( 'NONE', #169, .T. ) ;
#181 = ADVANCED_FACE ( 'NONE', ( #229 ), #6, .T. ) ;
#182 = PRODUCT_DEFINITION_FORMATION_WITH_SPECIFIED_SOURCE ( 'LIBOVOLNÝ', '', #106, .NOT_KNOWN. ) ;
#183 = CIRCLE ( 'NONE', #47, 7.000000000000000000 ) ;
#184 = EDGE_CURVE ( 'NONE', #189, #149, #114, .T. ) ;
#185 = PERSON_AND_ORGANIZATION_ROLE ( 'design_supplier' ) ;
#186 = CARTESIAN_POINT ( 'NONE',  ( -4.099999999999999645, 0.000000000000000000, 100.0000000000000000 ) ) ;
#187 = DIRECTION ( 'NONE',  ( -0.000000000000000000, -0.000000000000000000, -1.000000000000000000 ) ) ;
#188 = FACE_OUTER_BOUND ( 'NONE', #31, .T. ) ;
#189 = VERTEX_POINT ( 'NONE', #250 ) ;
#190 = CC_DESIGN_PERSON_AND_ORGANIZATION_ASSIGNMENT ( #231, #7, ( #182 ) ) ;
#191 = ORIENTED_EDGE ( 'NONE', *, *, #69, .F. ) ;
#192 = APPROVAL_STATUS ( 'not_yet_approved' ) ;
#193 = DIRECTION ( 'NONE',  ( 0.000000000000000000, 0.000000000000000000, 1.000000000000000000 ) ) ;
#194 = AXIS2_PLACEMENT_3D ( 'NONE', #51, #207, #111 ) ;
#195 = ORIENTED_EDGE ( 'NONE', *, *, #88, .T. ) ;
#196 = DIRECTION ( 'NONE',  ( 0.000000000000000000, 0.000000000000000000, 1.000000000000000000 ) ) ;
#197 = AXIS2_PLACEMENT_3D ( 'NONE', #71, #193, #4 ) ;
#198 = CYLINDRICAL_SURFACE ( 'NONE', #86, 7.000000000000000000 ) ;
#199 = DIRECTION ( 'NONE',  ( -1.000000000000000000, 0.000000000000000000, 0.000000000000000000 ) ) ;
#200 = APPLICATION_PROTOCOL_DEFINITION ( 'international standard', 'config_control_design', 1994, #177 ) ;
#201 = APPROVAL_ROLE ( '' ) ;
#202 = EDGE_CURVE ( 'NONE', #239, #3, #28, .T. ) ;
#203 = FACE_OUTER_BOUND ( 'NONE', #19, .T. ) ;
#204 = ADVANCED_FACE ( 'NONE', ( #15, #91 ), #152, .T. ) ;
#205 = PERSON_AND_ORGANIZATION ( #156, #61 ) ;
#206 = DIRECTION ( 'NONE',  ( -1.000000000000000000, 0.000000000000000000, 0.000000000000000000 ) ) ;
#207 = DIRECTION ( 'NONE',  ( 0.000000000000000000, 0.000000000000000000, 1.000000000000000000 ) ) ;
#208 = ORIENTED_EDGE ( 'NONE', *, *, #63, .F. ) ;
#209 = CARTESIAN_POINT ( 'NONE',  ( 7.000000000000000000, 8.572527594031473190E-16, 5.000000000000000000 ) ) ;
#210 = DATE_TIME_ROLE ( 'creation_date' ) ;
#211 = ORIENTED_EDGE ( 'NONE', *, *, #39, .F. ) ;
#212 = AXIS2_PLACEMENT_3D ( 'NONE', #27, #41, #44 ) ;
#213 = ORIENTED_EDGE ( 'NONE', *, *, #69, .T. ) ;
#214 = DIRECTION ( 'NONE',  ( 1.000000000000000000, 0.000000000000000000, 0.000000000000000000 ) ) ;
#215 = ORIENTED_EDGE ( 'NONE', *, *, #164, .T. ) ;
#216 = FACE_OUTER_BOUND ( 'NONE', #232, .T. ) ;
#217 = VERTEX_POINT ( 'NONE', #167 ) ;
#218 = ORIENTED_EDGE ( 'NONE', *, *, #43, .F. ) ;
#219 = LINE ( 'NONE', #42, #64 ) ;
#220 = DATE_AND_TIME ( #98, #132 ) ;
#221 = CC_DESIGN_DATE_AND_TIME_ASSIGNMENT ( #30, #110, ( #120 ) ) ;
#222 = CALENDAR_DATE ( 2023, 13, 2 ) ;
#223 = PERSON_AND_ORGANIZATION ( #156, #61 ) ;
#224 = AXIS2_PLACEMENT_3D ( 'NONE', #118, #54, #10 ) ;
#225 = DIRECTION ( 'NONE',  ( -0.000000000000000000, -0.000000000000000000, -1.000000000000000000 ) ) ;
#226 = DIRECTION ( 'NONE',  ( 1.000000000000000000, 0.000000000000000000, 0.000000000000000000 ) ) ;
#227 = ADVANCED_FACE ( 'NONE', ( #93 ), #95, .T. ) ;
#228 =( NAMED_UNIT ( * ) SI_UNIT ( $, .STERADIAN. ) SOLID_ANGLE_UNIT ( ) );
#229 = FACE_OUTER_BOUND ( 'NONE', #165, .T. ) ;
#230 = COORDINATED_UNIVERSAL_TIME_OFFSET ( 1, 0, .AHEAD. ) ;
#231 = PERSON_AND_ORGANIZATION ( #156, #61 ) ;
#232 = EDGE_LOOP ( 'NONE', ( #211, #76 ) ) ;
#233 = AXIS2_PLACEMENT_3D ( 'NONE', #151, #166, #254 ) ;
#234 = CARTESIAN_POINT ( 'NONE',  ( 0.000000000000000000, 0.000000000000000000, 0.000000000000000000 ) ) ;
#235 = PERSON_AND_ORGANIZATION ( #156, #61 ) ;
#236 = ORIENTED_EDGE ( 'NONE', *, *, #43, .T. ) ;
#237 = AXIS2_PLACEMENT_3D ( 'NONE', #234, #1, #56 ) ;
#238 = ORIENTED_EDGE ( 'NONE', *, *, #57, .T. ) ;
#239 = VERTEX_POINT ( 'NONE', #140 ) ;
#240 = CIRCLE ( 'NONE', #135, 7.000000000000000000 ) ;
#241 = VERTEX_POINT ( 'NONE', #35 ) ;
#242 = PRODUCT_DEFINITION ( 'NEZNÁMÝ', '', #182, #160 ) ;
#243 = CARTESIAN_POINT ( 'NONE',  ( 0.000000000000000000, 0.000000000000000000, 0.000000000000000000 ) ) ;
#244 = APPROVAL_PERSON_ORGANIZATION ( #235, #172, #175 ) ;
#245 = APPROVAL_PERSON_ORGANIZATION ( #73, #255, #33 ) ;
#246 = CARTESIAN_POINT ( 'NONE',  ( 0.000000000000000000, 0.000000000000000000, 100.0000000000000000 ) ) ;
#247 = AXIS2_PLACEMENT_3D ( 'NONE', #246, #45, #199 ) ;
#248 = CIRCLE ( 'NONE', #237, 7.000000000000000000 ) ;
#249 = CARTESIAN_POINT ( 'NONE',  ( -7.000000000000000000, 0.000000000000000000, 5.000000000000000000 ) ) ;
#250 = CARTESIAN_POINT ( 'NONE',  ( -4.099999999999999645, 0.000000000000000000, 100.0000000000000000 ) ) ;
#251 = APPROVAL_PERSON_ORGANIZATION ( #23, #134, #201 ) ;
#252 = DIRECTION ( 'NONE',  ( 0.000000000000000000, 0.000000000000000000, 1.000000000000000000 ) ) ;
#253 = PERSON_AND_ORGANIZATION ( #156, #61 ) ;
#254 = DIRECTION ( 'NONE',  ( 1.000000000000000000, 0.000000000000000000, -0.000000000000000000 ) ) ;
#255 = APPROVAL ( #90, 'NEURÈENÝ' ) ;
ENDSEC;
END-ISO-10303-21;
