ISO-10303-21;
HEADER;
FILE_DESCRIPTION (( 'STEP AP203' ),
    '1' );
FILE_NAME ('a5ab.STEP',
    '2023-02-13T12:05:06',
    ( '' ),
    ( '' ),
    'SwSTEP 2.0',
    'SolidWorks 2019',
    '' );
FILE_SCHEMA (( 'CONFIG_CONTROL_DESIGN' ));
ENDSEC;

DATA;
#1 = CARTESIAN_POINT ( 'NONE',  ( 5.100000000000001421, 6.245698675651502811E-16, 100.0000000000000000 ) ) ;
#2 = CARTESIAN_POINT ( 'NONE',  ( 8.000000000000000000, 9.797174393178825657E-16, 0.000000000000000000 ) ) ;
#3 = APPROVAL ( #65, 'NEURÈENÝ' ) ;
#4 = CC_DESIGN_APPROVAL ( #148, ( #116 ) ) ;
#5 = CARTESIAN_POINT ( 'NONE',  ( -8.000000000000000000, 0.000000000000000000, 0.000000000000000000 ) ) ;
#6 = PERSON_AND_ORGANIZATION_ROLE ( 'creator' ) ;
#7 = EDGE_LOOP ( 'NONE', ( #12, #123, #205, #158 ) ) ;
#8 = MECHANICAL_CONTEXT ( 'NONE', #167, 'mechanical' ) ;
#9 = DATE_AND_TIME ( #159, #77 ) ;
#10 = DIRECTION ( 'NONE',  ( -0.000000000000000000, -0.000000000000000000, -1.000000000000000000 ) ) ;
#11 = APPLICATION_PROTOCOL_DEFINITION ( 'international standard', 'config_control_design', 1994, #248 ) ;
#12 = ORIENTED_EDGE ( 'NONE', *, *, #94, .F. ) ;
#13 = CARTESIAN_POINT ( 'NONE',  ( 0.000000000000000000, 0.000000000000000000, 0.000000000000000000 ) ) ;
#14 = AXIS2_PLACEMENT_3D ( 'NONE', #13, #125, #22 ) ;
#15 = ORIENTED_EDGE ( 'NONE', *, *, #100, .F. ) ;
#16 = PRODUCT_DEFINITION_SHAPE ( 'NONE', 'NONE',  #116 ) ;
#17 = AXIS2_PLACEMENT_3D ( 'NONE', #201, #126, #199 ) ;
#18 = AXIS2_PLACEMENT_3D ( 'NONE', #63, #101, #20 ) ;
#19 = ORIENTED_EDGE ( 'NONE', *, *, #56, .F. ) ;
#20 = DIRECTION ( 'NONE',  ( 1.000000000000000000, 0.000000000000000000, 0.000000000000000000 ) ) ;
#21 = DIRECTION ( 'NONE',  ( -1.000000000000000000, 0.000000000000000000, 0.000000000000000000 ) ) ;
#22 = DIRECTION ( 'NONE',  ( 1.000000000000000000, 0.000000000000000000, 0.000000000000000000 ) ) ;
#23 = FACE_OUTER_BOUND ( 'NONE', #250, .T. ) ;
#24 = EDGE_CURVE ( 'NONE', #145, #149, #93, .T. ) ;
#25 = CARTESIAN_POINT ( 'NONE',  ( -5.100000000000001421, 0.000000000000000000, 100.0000000000000000 ) ) ;
#26 = CALENDAR_DATE ( 2023, 13, 2 ) ;
#27 = ADVANCED_FACE ( 'NONE', ( #96 ), #54, .T. ) ;
#28 = PERSON_AND_ORGANIZATION ( #39, #174 ) ;
#29 = CALENDAR_DATE ( 2023, 13, 2 ) ;
#30 = VERTEX_POINT ( 'NONE', #73 ) ;
#31 = EDGE_CURVE ( 'NONE', #211, #144, #166, .T. ) ;
#32 = VECTOR ( 'NONE', #80, 1000.000000000000000 ) ;
#33 = CYLINDRICAL_SURFACE ( 'NONE', #146, 8.000000000000000000 ) ;
#34 = DIRECTION ( 'NONE',  ( 0.000000000000000000, 0.000000000000000000, 1.000000000000000000 ) ) ;
#35 = LINE ( 'NONE', #208, #239 ) ;
#36 = FACE_OUTER_BOUND ( 'NONE', #91, .T. ) ;
#37 = CC_DESIGN_PERSON_AND_ORGANIZATION_ASSIGNMENT ( #28, #48, ( #190 ) ) ;
#38 = CARTESIAN_POINT ( 'NONE',  ( 0.000000000000000000, 0.000000000000000000, 5.000000000000000000 ) ) ;
#39 = PERSON ( 'NEURÈENÝ', 'NEURÈENÝ', 'NEURÈENÝ', ('NEURÈENÝ'), ('NEURÈENÝ'), ('NEURÈENÝ') ) ;
#40 = FACE_OUTER_BOUND ( 'NONE', #128, .T. ) ;
#41 = DIRECTION ( 'NONE',  ( 1.000000000000000000, 0.000000000000000000, -0.000000000000000000 ) ) ;
#42 = ORIENTED_EDGE ( 'NONE', *, *, #253, .F. ) ;
#43 = DIRECTION ( 'NONE',  ( 0.000000000000000000, 0.000000000000000000, 1.000000000000000000 ) ) ;
#44 = CC_DESIGN_APPROVAL ( #154, ( #190 ) ) ;
#45 = DATE_AND_TIME ( #26, #226 ) ;
#46 = VECTOR ( 'NONE', #58, 1000.000000000000000 ) ;
#47 = APPROVAL_DATE_TIME ( #45, #3 ) ;
#48 = PERSON_AND_ORGANIZATION_ROLE ( 'design_supplier' ) ;
#49 = DIRECTION ( 'NONE',  ( -0.000000000000000000, -0.000000000000000000, -1.000000000000000000 ) ) ;
#50 = CARTESIAN_POINT ( 'NONE',  ( 0.000000000000000000, 0.000000000000000000, 5.000000000000000000 ) ) ;
#51 = AXIS2_PLACEMENT_3D ( 'NONE', #50, #53, #193 ) ;
#52 = COORDINATED_UNIVERSAL_TIME_OFFSET ( 1, 0, .AHEAD. ) ;
#53 = DIRECTION ( 'NONE',  ( 0.000000000000000000, 0.000000000000000000, 1.000000000000000000 ) ) ;
#54 = PLANE ( 'NONE',  #235 ) ;
#55 = PRODUCT ( 'a5ab', 'a5ab', '', ( #8 ) ) ;
#56 = EDGE_CURVE ( 'NONE', #237, #139, #213, .T. ) ;
#57 = CC_DESIGN_PERSON_AND_ORGANIZATION_ASSIGNMENT ( #136, #209, ( #116 ) ) ;
#58 = DIRECTION ( 'NONE',  ( -0.000000000000000000, -0.000000000000000000, -1.000000000000000000 ) ) ;
#59 = CARTESIAN_POINT ( 'NONE',  ( -8.000000000000000000, 0.000000000000000000, 5.000000000000000000 ) ) ;
#60 = CYLINDRICAL_SURFACE ( 'NONE', #247, 5.100000000000001421 ) ;
#61 = DIRECTION ( 'NONE',  ( -1.000000000000000000, 0.000000000000000000, 0.000000000000000000 ) ) ;
#62 = CIRCLE ( 'NONE', #18, 5.100000000000001421 ) ;
#63 = CARTESIAN_POINT ( 'NONE',  ( 0.000000000000000000, 0.000000000000000000, 5.000000000000000000 ) ) ;
#64 = DESIGN_CONTEXT ( 'detailed design', #248, 'design' ) ;
#65 = APPROVAL_STATUS ( 'not_yet_approved' ) ;
#66 = EDGE_LOOP ( 'NONE', ( #152, #88 ) ) ;
#67 = APPROVAL_STATUS ( 'not_yet_approved' ) ;
#68 = AXIS2_PLACEMENT_3D ( 'NONE', #241, #171, #61 ) ;
#69 = DIRECTION ( 'NONE',  ( 0.000000000000000000, 0.000000000000000000, 1.000000000000000000 ) ) ;
#70 = APPROVAL_DATE_TIME ( #9, #148 ) ;
#71 = ORIENTED_EDGE ( 'NONE', *, *, #133, .F. ) ;
#72 = PERSON_AND_ORGANIZATION_ROLE ( 'design_owner' ) ;
#73 = CARTESIAN_POINT ( 'NONE',  ( -8.000000000000000000, 0.000000000000000000, 5.000000000000000000 ) ) ;
#74 = ORIENTED_EDGE ( 'NONE', *, *, #24, .F. ) ;
#75 = LOCAL_TIME ( 13, 5, 6.000000000000000000, #187 ) ;
#76 = VECTOR ( 'NONE', #49, 1000.000000000000000 ) ;
#77 = LOCAL_TIME ( 13, 5, 6.000000000000000000, #143 ) ;
#78 = ORIENTED_EDGE ( 'NONE', *, *, #133, .T. ) ;
#79 = LINE ( 'NONE', #59, #32 ) ;
#80 = DIRECTION ( 'NONE',  ( -0.000000000000000000, -0.000000000000000000, -1.000000000000000000 ) ) ;
#81 = MANIFOLD_SOLID_BREP ( 'Pøidat vysunutím3', #102 ) ;
#82 = CIRCLE ( 'NONE', #150, 5.100000000000001421 ) ;
#83 = AXIS2_PLACEMENT_3D ( 'NONE', #219, #238, #41 ) ;
#84 = PERSON_AND_ORGANIZATION ( #39, #174 ) ;
#85 = PERSON_AND_ORGANIZATION ( #39, #174 ) ;
#86 = COORDINATED_UNIVERSAL_TIME_OFFSET ( 1, 0, .AHEAD. ) ;
#87 = DIRECTION ( 'NONE',  ( 1.000000000000000000, 0.000000000000000000, 0.000000000000000000 ) ) ;
#88 = ORIENTED_EDGE ( 'NONE', *, *, #118, .F. ) ;
#89 = CALENDAR_DATE ( 2023, 13, 2 ) ;
#90 = ORIENTED_EDGE ( 'NONE', *, *, #92, .F. ) ;
#91 = EDGE_LOOP ( 'NONE', ( #178, #15, #180, #117 ) ) ;
#92 = EDGE_CURVE ( 'NONE', #149, #139, #35, .T. ) ;
#93 = CIRCLE ( 'NONE', #121, 5.100000000000001421 ) ;
#94 = EDGE_CURVE ( 'NONE', #211, #30, #244, .T. ) ;
#95 = APPROVAL_PERSON_ORGANIZATION ( #157, #148, #179 ) ;
#96 = FACE_OUTER_BOUND ( 'NONE', #163, .T. ) ;
#97 = ADVANCED_FACE ( 'NONE', ( #36 ), #33, .T. ) ;
#98 = DIRECTION ( 'NONE',  ( 1.000000000000000000, 0.000000000000000000, 0.000000000000000000 ) ) ;
#99 = PLANE ( 'NONE',  #216 ) ;
#100 = EDGE_CURVE ( 'NONE', #30, #211, #141, .T. ) ;
#101 = DIRECTION ( 'NONE',  ( 0.000000000000000000, 0.000000000000000000, 1.000000000000000000 ) ) ;
#102 = CLOSED_SHELL ( 'NONE', ( #203, #130, #97, #137, #155, #198, #27 ) ) ;
#103 = CARTESIAN_POINT ( 'NONE',  ( 0.000000000000000000, 0.000000000000000000, 0.000000000000000000 ) ) ;
#104 = ADVANCED_BREP_SHAPE_REPRESENTATION ( 'a5ab', ( #81, #147 ), #196 ) ;
#105 = PLANE ( 'NONE',  #83 ) ;
#106 = UNCERTAINTY_MEASURE_WITH_UNIT (LENGTH_MEASURE( 1.000000000000000082E-05 ), #127, 'distance_accuracy_value', 'NONE');
#107 = DATE_TIME_ROLE ( 'creation_date' ) ;
#108 = CARTESIAN_POINT ( 'NONE',  ( 0.000000000000000000, 0.000000000000000000, 0.000000000000000000 ) ) ;
#109 = APPROVAL_DATE_TIME ( #224, #154 ) ;
#110 = ORIENTED_EDGE ( 'NONE', *, *, #100, .T. ) ;
#111 = EDGE_CURVE ( 'NONE', #145, #237, #119, .T. ) ;
#112 = SECURITY_CLASSIFICATION_LEVEL ( 'unclassified' ) ;
#113 = EDGE_LOOP ( 'NONE', ( #110, #252 ) ) ;
#114 = CIRCLE ( 'NONE', #14, 8.000000000000000000 ) ;
#115 = CC_DESIGN_DATE_AND_TIME_ASSIGNMENT ( #227, #245, ( #214 ) ) ;
#116 = PRODUCT_DEFINITION ( 'NEZNÁMÝ', '', #190, #64 ) ;
#117 = ORIENTED_EDGE ( 'NONE', *, *, #236, .T. ) ;
#118 = EDGE_CURVE ( 'NONE', #144, #120, #114, .T. ) ;
#119 = LINE ( 'NONE', #192, #76 ) ;
#120 = VERTEX_POINT ( 'NONE', #5 ) ;
#121 = AXIS2_PLACEMENT_3D ( 'NONE', #195, #210, #98 ) ;
#122 = LOCAL_TIME ( 13, 5, 6.000000000000000000, #251 ) ;
#123 = ORIENTED_EDGE ( 'NONE', *, *, #31, .T. ) ;
#124 = APPROVAL_PERSON_ORGANIZATION ( #85, #3, #231 ) ;
#125 = DIRECTION ( 'NONE',  ( 0.000000000000000000, 0.000000000000000000, 1.000000000000000000 ) ) ;
#126 = DIRECTION ( 'NONE',  ( 0.000000000000000000, 0.000000000000000000, 1.000000000000000000 ) ) ;
#127 =( LENGTH_UNIT ( ) NAMED_UNIT ( * ) SI_UNIT ( .MILLI., .METRE. ) );
#128 = EDGE_LOOP ( 'NONE', ( #42, #181, #78, #189 ) ) ;
#129 = CIRCLE ( 'NONE', #17, 8.000000000000000000 ) ;
#130 = ADVANCED_FACE ( 'NONE', ( #217 ), #184, .T. ) ;
#131 = DIRECTION ( 'NONE',  ( 1.000000000000000000, 0.000000000000000000, -0.000000000000000000 ) ) ;
#132 = CC_DESIGN_PERSON_AND_ORGANIZATION_ASSIGNMENT ( #164, #6, ( #190 ) ) ;
#133 = EDGE_CURVE ( 'NONE', #139, #237, #62, .T. ) ;
#134 = AXIS2_PLACEMENT_3D ( 'NONE', #142, #165, #255 ) ;
#135 = CC_DESIGN_APPROVAL ( #3, ( #214 ) ) ;
#136 = PERSON_AND_ORGANIZATION ( #39, #174 ) ;
#137 = ADVANCED_FACE ( 'NONE', ( #218, #173 ), #105, .T. ) ;
#138 = PRODUCT_RELATED_PRODUCT_CATEGORY ( 'detail', '', ( #55 ) ) ;
#139 = VERTEX_POINT ( 'NONE', #202 ) ;
#140 = APPROVAL_STATUS ( 'not_yet_approved' ) ;
#141 = CIRCLE ( 'NONE', #194, 8.000000000000000000 ) ;
#142 = CARTESIAN_POINT ( 'NONE',  ( 0.000000000000000000, 0.000000000000000000, 5.000000000000000000 ) ) ;
#143 = COORDINATED_UNIVERSAL_TIME_OFFSET ( 1, 0, .AHEAD. ) ;
#144 = VERTEX_POINT ( 'NONE', #2 ) ;
#145 = VERTEX_POINT ( 'NONE', #25 ) ;
#146 = AXIS2_PLACEMENT_3D ( 'NONE', #168, #246, #161 ) ;
#147 = AXIS2_PLACEMENT_3D ( 'NONE', #108, #229, #87 ) ;
#148 = APPROVAL ( #67, 'NEURÈENÝ' ) ;
#149 = VERTEX_POINT ( 'NONE', #1 ) ;
#150 = AXIS2_PLACEMENT_3D ( 'NONE', #186, #156, #185 ) ;
#151 = DIRECTION ( 'NONE',  ( -0.000000000000000000, -0.000000000000000000, -1.000000000000000000 ) ) ;
#152 = ORIENTED_EDGE ( 'NONE', *, *, #236, .F. ) ;
#153 = DIRECTION ( 'NONE',  ( -0.000000000000000000, -0.000000000000000000, -1.000000000000000000 ) ) ;
#154 = APPROVAL ( #140, 'NEURÈENÝ' ) ;
#155 = ADVANCED_FACE ( 'NONE', ( #183 ), #99, .F. ) ;
#156 = DIRECTION ( 'NONE',  ( 0.000000000000000000, 0.000000000000000000, 1.000000000000000000 ) ) ;
#157 = PERSON_AND_ORGANIZATION ( #39, #174 ) ;
#158 = ORIENTED_EDGE ( 'NONE', *, *, #160, .F. ) ;
#159 = CALENDAR_DATE ( 2023, 13, 2 ) ;
#160 = EDGE_CURVE ( 'NONE', #30, #120, #79, .T. ) ;
#161 = DIRECTION ( 'NONE',  ( -1.000000000000000000, 0.000000000000000000, 0.000000000000000000 ) ) ;
#162 = CALENDAR_DATE ( 2023, 13, 2 ) ;
#163 = EDGE_LOOP ( 'NONE', ( #177, #220 ) ) ;
#164 = PERSON_AND_ORGANIZATION ( #39, #174 ) ;
#165 = DIRECTION ( 'NONE',  ( 0.000000000000000000, 0.000000000000000000, 1.000000000000000000 ) ) ;
#166 = LINE ( 'NONE', #230, #46 ) ;
#167 = APPLICATION_CONTEXT ( 'configuration controlled 3d designs of mechanical parts and assemblies' ) ;
#168 = CARTESIAN_POINT ( 'NONE',  ( 0.000000000000000000, 0.000000000000000000, 5.000000000000000000 ) ) ;
#169 = DIRECTION ( 'NONE',  ( -1.000000000000000000, 0.000000000000000000, 0.000000000000000000 ) ) ;
#170 = CARTESIAN_POINT ( 'NONE',  ( -5.100000000000001421, 0.000000000000000000, 5.000000000000000000 ) ) ;
#171 = DIRECTION ( 'NONE',  ( -0.000000000000000000, -0.000000000000000000, -1.000000000000000000 ) ) ;
#172 = CYLINDRICAL_SURFACE ( 'NONE', #68, 5.100000000000001421 ) ;
#173 = FACE_OUTER_BOUND ( 'NONE', #113, .T. ) ;
#174 = ORGANIZATION ( 'NEURÈENÝ', 'NEURÈENÝ', '' ) ;
#175 = PERSON_AND_ORGANIZATION ( #39, #174 ) ;
#176 = SHAPE_DEFINITION_REPRESENTATION ( #16, #104 ) ;
#177 = ORIENTED_EDGE ( 'NONE', *, *, #24, .T. ) ;
#178 = ORIENTED_EDGE ( 'NONE', *, *, #31, .F. ) ;
#179 = APPROVAL_ROLE ( '' ) ;
#180 = ORIENTED_EDGE ( 'NONE', *, *, #160, .T. ) ;
#181 = ORIENTED_EDGE ( 'NONE', *, *, #92, .T. ) ;
#182 = CARTESIAN_POINT ( 'NONE',  ( 0.000000000000000000, 0.000000000000000000, 100.0000000000000000 ) ) ;
#183 = FACE_OUTER_BOUND ( 'NONE', #66, .T. ) ;
#184 = CYLINDRICAL_SURFACE ( 'NONE', #207, 8.000000000000000000 ) ;
#185 = DIRECTION ( 'NONE',  ( 1.000000000000000000, 0.000000000000000000, 0.000000000000000000 ) ) ;
#186 = CARTESIAN_POINT ( 'NONE',  ( 0.000000000000000000, 0.000000000000000000, 100.0000000000000000 ) ) ;
#187 = COORDINATED_UNIVERSAL_TIME_OFFSET ( 1, 0, .AHEAD. ) ;
#188 = PERSON_AND_ORGANIZATION_ROLE ( 'classification_officer' ) ;
#189 = ORIENTED_EDGE ( 'NONE', *, *, #111, .F. ) ;
#190 = PRODUCT_DEFINITION_FORMATION_WITH_SPECIFIED_SOURCE ( 'LIBOVOLNÝ', '', #55, .NOT_KNOWN. ) ;
#191 = DIRECTION ( 'NONE',  ( 1.000000000000000000, 0.000000000000000000, -0.000000000000000000 ) ) ;
#192 = CARTESIAN_POINT ( 'NONE',  ( -5.100000000000001421, 0.000000000000000000, 100.0000000000000000 ) ) ;
#193 = DIRECTION ( 'NONE',  ( 1.000000000000000000, 0.000000000000000000, 0.000000000000000000 ) ) ;
#194 = AXIS2_PLACEMENT_3D ( 'NONE', #232, #34, #228 ) ;
#195 = CARTESIAN_POINT ( 'NONE',  ( 0.000000000000000000, 0.000000000000000000, 100.0000000000000000 ) ) ;
#196 =( GEOMETRIC_REPRESENTATION_CONTEXT ( 3 ) GLOBAL_UNCERTAINTY_ASSIGNED_CONTEXT ( ( #106 ) ) GLOBAL_UNIT_ASSIGNED_CONTEXT ( ( #127, #240, #223 ) ) REPRESENTATION_CONTEXT ( 'NONE', 'WORKASPACE' ) );
#197 = CARTESIAN_POINT ( 'NONE',  ( 0.000000000000000000, 0.000000000000000000, 100.0000000000000000 ) ) ;
#198 = ADVANCED_FACE ( 'NONE', ( #23 ), #172, .T. ) ;
#199 = DIRECTION ( 'NONE',  ( 1.000000000000000000, 0.000000000000000000, 0.000000000000000000 ) ) ;
#200 = APPROVAL_PERSON_ORGANIZATION ( #84, #154, #206 ) ;
#201 = CARTESIAN_POINT ( 'NONE',  ( 0.000000000000000000, 0.000000000000000000, 0.000000000000000000 ) ) ;
#202 = CARTESIAN_POINT ( 'NONE',  ( 5.100000000000001421, 6.245698675651502811E-16, 5.000000000000000000 ) ) ;
#203 = ADVANCED_FACE ( 'NONE', ( #40 ), #60, .T. ) ;
#204 = CC_DESIGN_PERSON_AND_ORGANIZATION_ASSIGNMENT ( #249, #188, ( #214 ) ) ;
#205 = ORIENTED_EDGE ( 'NONE', *, *, #118, .T. ) ;
#206 = APPROVAL_ROLE ( '' ) ;
#207 = AXIS2_PLACEMENT_3D ( 'NONE', #38, #151, #21 ) ;
#208 = CARTESIAN_POINT ( 'NONE',  ( 5.100000000000001421, 6.245698675651502811E-16, 100.0000000000000000 ) ) ;
#209 = PERSON_AND_ORGANIZATION_ROLE ( 'creator' ) ;
#210 = DIRECTION ( 'NONE',  ( 0.000000000000000000, 0.000000000000000000, 1.000000000000000000 ) ) ;
#211 = VERTEX_POINT ( 'NONE', #221 ) ;
#212 = CC_DESIGN_DATE_AND_TIME_ASSIGNMENT ( #225, #107, ( #116 ) ) ;
#213 = CIRCLE ( 'NONE', #51, 5.100000000000001421 ) ;
#214 = SECURITY_CLASSIFICATION ( '', '', #112 ) ;
#215 = ORIENTED_EDGE ( 'NONE', *, *, #56, .T. ) ;
#216 = AXIS2_PLACEMENT_3D ( 'NONE', #103, #43, #131 ) ;
#217 = FACE_OUTER_BOUND ( 'NONE', #7, .T. ) ;
#218 = FACE_BOUND ( 'NONE', #254, .T. ) ;
#219 = CARTESIAN_POINT ( 'NONE',  ( 0.000000000000000000, 0.000000000000000000, 5.000000000000000000 ) ) ;
#220 = ORIENTED_EDGE ( 'NONE', *, *, #253, .T. ) ;
#221 = CARTESIAN_POINT ( 'NONE',  ( 8.000000000000000000, 9.797174393178825657E-16, 5.000000000000000000 ) ) ;
#222 = CC_DESIGN_SECURITY_CLASSIFICATION ( #214, ( #190 ) ) ;
#223 =( NAMED_UNIT ( * ) SI_UNIT ( $, .STERADIAN. ) SOLID_ANGLE_UNIT ( ) );
#224 = DATE_AND_TIME ( #29, #122 ) ;
#225 = DATE_AND_TIME ( #89, #75 ) ;
#226 = LOCAL_TIME ( 13, 5, 6.000000000000000000, #52 ) ;
#227 = DATE_AND_TIME ( #162, #233 ) ;
#228 = DIRECTION ( 'NONE',  ( 1.000000000000000000, 0.000000000000000000, 0.000000000000000000 ) ) ;
#229 = DIRECTION ( 'NONE',  ( 0.000000000000000000, 0.000000000000000000, 1.000000000000000000 ) ) ;
#230 = CARTESIAN_POINT ( 'NONE',  ( 8.000000000000000000, 9.797174393178825657E-16, 5.000000000000000000 ) ) ;
#231 = APPROVAL_ROLE ( '' ) ;
#232 = CARTESIAN_POINT ( 'NONE',  ( 0.000000000000000000, 0.000000000000000000, 5.000000000000000000 ) ) ;
#233 = LOCAL_TIME ( 13, 5, 6.000000000000000000, #86 ) ;
#234 = ORIENTED_EDGE ( 'NONE', *, *, #111, .T. ) ;
#235 = AXIS2_PLACEMENT_3D ( 'NONE', #182, #69, #191 ) ;
#236 = EDGE_CURVE ( 'NONE', #120, #144, #129, .T. ) ;
#237 = VERTEX_POINT ( 'NONE', #170 ) ;
#238 = DIRECTION ( 'NONE',  ( 0.000000000000000000, 0.000000000000000000, 1.000000000000000000 ) ) ;
#239 = VECTOR ( 'NONE', #10, 1000.000000000000000 ) ;
#240 =( NAMED_UNIT ( * ) PLANE_ANGLE_UNIT ( ) SI_UNIT ( $, .RADIAN. ) );
#241 = CARTESIAN_POINT ( 'NONE',  ( 0.000000000000000000, 0.000000000000000000, 100.0000000000000000 ) ) ;
#242 = CC_DESIGN_PERSON_AND_ORGANIZATION_ASSIGNMENT ( #175, #72, ( #55 ) ) ;
#243 = APPLICATION_PROTOCOL_DEFINITION ( 'international standard', 'config_control_design', 1994, #167 ) ;
#244 = CIRCLE ( 'NONE', #134, 8.000000000000000000 ) ;
#245 = DATE_TIME_ROLE ( 'classification_date' ) ;
#246 = DIRECTION ( 'NONE',  ( -0.000000000000000000, -0.000000000000000000, -1.000000000000000000 ) ) ;
#247 = AXIS2_PLACEMENT_3D ( 'NONE', #197, #153, #169 ) ;
#248 = APPLICATION_CONTEXT ( 'configuration controlled 3d designs of mechanical parts and assemblies' ) ;
#249 = PERSON_AND_ORGANIZATION ( #39, #174 ) ;
#250 = EDGE_LOOP ( 'NONE', ( #90, #74, #234, #215 ) ) ;
#251 = COORDINATED_UNIVERSAL_TIME_OFFSET ( 1, 0, .AHEAD. ) ;
#252 = ORIENTED_EDGE ( 'NONE', *, *, #94, .T. ) ;
#253 = EDGE_CURVE ( 'NONE', #149, #145, #82, .T. ) ;
#254 = EDGE_LOOP ( 'NONE', ( #19, #71 ) ) ;
#255 = DIRECTION ( 'NONE',  ( 1.000000000000000000, 0.000000000000000000, 0.000000000000000000 ) ) ;
ENDSEC;
END-ISO-10303-21;
