ISO-10303-21;
HEADER;
FILE_DESCRIPTION (( 'STEP AP203' ),
    '1' );
FILE_NAME ('5f33.STEP',
    '2023-02-13T14:08:20',
    ( '' ),
    ( '' ),
    'SwSTEP 2.0',
    'SolidWorks 2019',
    '' );
FILE_SCHEMA (( 'CONFIG_CONTROL_DESIGN' ));
ENDSEC;

DATA;
#1 = DIRECTION ( 'NONE',  ( -0.000000000000000000, -0.000000000000000000, -1.000000000000000000 ) ) ;
#2 = ADVANCED_BREP_SHAPE_REPRESENTATION ( '5f33', ( #204, #103 ), #186 ) ;
#3 = DIRECTION ( 'NONE',  ( -0.000000000000000000, -0.000000000000000000, -1.000000000000000000 ) ) ;
#4 = ADVANCED_FACE ( 'NONE', ( #125 ), #106, .T. ) ;
#5 = DIRECTION ( 'NONE',  ( 0.000000000000000000, 0.000000000000000000, 1.000000000000000000 ) ) ;
#6 = ORIENTED_EDGE ( 'NONE', *, *, #23, .F. ) ;
#7 = LOCAL_TIME ( 15, 8, 20.00000000000000000, #16 ) ;
#8 = CARTESIAN_POINT ( 'NONE',  ( 0.000000000000000000, 0.000000000000000000, 3.000000000000000000 ) ) ;
#9 = CARTESIAN_POINT ( 'NONE',  ( 0.000000000000000000, 0.000000000000000000, 3.000000000000000000 ) ) ;
#10 = VERTEX_POINT ( 'NONE', #232 ) ;
#11 = APPROVAL_ROLE ( '' ) ;
#12 = PERSON_AND_ORGANIZATION_ROLE ( 'classification_officer' ) ;
#13 = APPROVAL_STATUS ( 'not_yet_approved' ) ;
#14 = DESIGN_CONTEXT ( 'detailed design', #53, 'design' ) ;
#15 = CC_DESIGN_PERSON_AND_ORGANIZATION_ASSIGNMENT ( #228, #126, ( #158 ) ) ;
#16 = COORDINATED_UNIVERSAL_TIME_OFFSET ( 1, 0, .AHEAD. ) ;
#17 = PERSON_AND_ORGANIZATION ( #90, #248 ) ;
#18 = DIRECTION ( 'NONE',  ( 1.000000000000000000, 0.000000000000000000, 0.000000000000000000 ) ) ;
#19 = DIRECTION ( 'NONE',  ( 1.000000000000000000, 0.000000000000000000, -0.000000000000000000 ) ) ;
#20 = LINE ( 'NONE', #172, #55 ) ;
#21 = AXIS2_PLACEMENT_3D ( 'NONE', #117, #40, #64 ) ;
#22 = CARTESIAN_POINT ( 'NONE',  ( 0.000000000000000000, 0.000000000000000000, 0.000000000000000000 ) ) ;
#23 = EDGE_CURVE ( 'NONE', #97, #10, #245, .T. ) ;
#24 = ORIENTED_EDGE ( 'NONE', *, *, #247, .F. ) ;
#25 = DIRECTION ( 'NONE',  ( 1.000000000000000000, 0.000000000000000000, 0.000000000000000000 ) ) ;
#26 = DIRECTION ( 'NONE',  ( 1.000000000000000000, 0.000000000000000000, 0.000000000000000000 ) ) ;
#27 = ORIENTED_EDGE ( 'NONE', *, *, #156, .T. ) ;
#28 = CARTESIAN_POINT ( 'NONE',  ( -5.000000000000000000, 0.000000000000000000, 0.000000000000000000 ) ) ;
#29 = AXIS2_PLACEMENT_3D ( 'NONE', #250, #187, #18 ) ;
#30 = EDGE_CURVE ( 'NONE', #97, #44, #20, .T. ) ;
#31 = COORDINATED_UNIVERSAL_TIME_OFFSET ( 1, 0, .AHEAD. ) ;
#32 = CALENDAR_DATE ( 2023, 13, 2 ) ;
#33 = EDGE_CURVE ( 'NONE', #44, #179, #99, .T. ) ;
#34 = DIRECTION ( 'NONE',  ( -1.000000000000000000, 0.000000000000000000, 0.000000000000000000 ) ) ;
#35 = ORIENTED_EDGE ( 'NONE', *, *, #33, .T. ) ;
#36 = PERSON_AND_ORGANIZATION ( #90, #248 ) ;
#37 = DIRECTION ( 'NONE',  ( -0.000000000000000000, -0.000000000000000000, -1.000000000000000000 ) ) ;
#38 = DIRECTION ( 'NONE',  ( 0.000000000000000000, 0.000000000000000000, 1.000000000000000000 ) ) ;
#39 = CC_DESIGN_PERSON_AND_ORGANIZATION_ASSIGNMENT ( #36, #68, ( #108 ) ) ;
#40 = DIRECTION ( 'NONE',  ( -0.000000000000000000, -0.000000000000000000, -1.000000000000000000 ) ) ;
#41 = VERTEX_POINT ( 'NONE', #93 ) ;
#42 = AXIS2_PLACEMENT_3D ( 'NONE', #216, #192, #152 ) ;
#43 = DIRECTION ( 'NONE',  ( 0.000000000000000000, 0.000000000000000000, 1.000000000000000000 ) ) ;
#44 = VERTEX_POINT ( 'NONE', #28 ) ;
#45 = DIRECTION ( 'NONE',  ( 1.000000000000000000, 0.000000000000000000, -0.000000000000000000 ) ) ;
#46 = ORIENTED_EDGE ( 'NONE', *, *, #220, .F. ) ;
#47 = CLOSED_SHELL ( 'NONE', ( #105, #171, #230, #165, #225, #249, #4 ) ) ;
#48 = CALENDAR_DATE ( 2023, 13, 2 ) ;
#49 = DATE_TIME_ROLE ( 'classification_date' ) ;
#50 = DATE_TIME_ROLE ( 'creation_date' ) ;
#51 = CARTESIAN_POINT ( 'NONE',  ( 0.000000000000000000, 0.000000000000000000, 3.000000000000000000 ) ) ;
#52 = SHAPE_DEFINITION_REPRESENTATION ( #227, #2 ) ;
#53 = APPLICATION_CONTEXT ( 'configuration controlled 3d designs of mechanical parts and assemblies' ) ;
#54 = EDGE_CURVE ( 'NONE', #179, #44, #137, .T. ) ;
#55 = VECTOR ( 'NONE', #37, 1000.000000000000000 ) ;
#56 = CARTESIAN_POINT ( 'NONE',  ( 0.000000000000000000, 0.000000000000000000, 500.0000000000000000 ) ) ;
#57 = CC_DESIGN_SECURITY_CLASSIFICATION ( #163, ( #158 ) ) ;
#58 = FACE_OUTER_BOUND ( 'NONE', #157, .T. ) ;
#59 = ORIENTED_EDGE ( 'NONE', *, *, #208, .F. ) ;
#60 = DIRECTION ( 'NONE',  ( 1.000000000000000000, 0.000000000000000000, 0.000000000000000000 ) ) ;
#61 = DIRECTION ( 'NONE',  ( -0.000000000000000000, -0.000000000000000000, -1.000000000000000000 ) ) ;
#62 = EDGE_LOOP ( 'NONE', ( #217, #219 ) ) ;
#63 = CC_DESIGN_APPROVAL ( #89, ( #158 ) ) ;
#64 = DIRECTION ( 'NONE',  ( -1.000000000000000000, 0.000000000000000000, 0.000000000000000000 ) ) ;
#65 = ORIENTED_EDGE ( 'NONE', *, *, #116, .F. ) ;
#66 = APPROVAL ( #206, 'NEURÈENÝ' ) ;
#67 = FACE_OUTER_BOUND ( 'NONE', #215, .T. ) ;
#68 = PERSON_AND_ORGANIZATION_ROLE ( 'creator' ) ;
#69 = LOCAL_TIME ( 15, 8, 20.00000000000000000, #113 ) ;
#70 = CC_DESIGN_PERSON_AND_ORGANIZATION_ASSIGNMENT ( #167, #229, ( #158 ) ) ;
#71 = CIRCLE ( 'NONE', #251, 2.750000000000000000 ) ;
#72 = APPROVAL_ROLE ( '' ) ;
#73 = AXIS2_PLACEMENT_3D ( 'NONE', #150, #43, #114 ) ;
#74 = DIRECTION ( 'NONE',  ( 0.000000000000000000, 0.000000000000000000, 1.000000000000000000 ) ) ;
#75 = DIRECTION ( 'NONE',  ( 0.000000000000000000, 0.000000000000000000, 1.000000000000000000 ) ) ;
#76 = CARTESIAN_POINT ( 'NONE',  ( 0.000000000000000000, 0.000000000000000000, 3.000000000000000000 ) ) ;
#77 = PLANE ( 'NONE',  #73 ) ;
#78 = EDGE_LOOP ( 'NONE', ( #59, #65, #80, #178 ) ) ;
#79 = CYLINDRICAL_SURFACE ( 'NONE', #253, 5.000000000000000000 ) ;
#80 = ORIENTED_EDGE ( 'NONE', *, *, #247, .T. ) ;
#81 = APPLICATION_PROTOCOL_DEFINITION ( 'international standard', 'config_control_design', 1994, #190 ) ;
#82 = DATE_AND_TIME ( #32, #7 ) ;
#83 = CALENDAR_DATE ( 2023, 13, 2 ) ;
#84 = APPROVAL_PERSON_ORGANIZATION ( #87, #66, #11 ) ;
#85 = CIRCLE ( 'NONE', #146, 5.000000000000000000 ) ;
#86 =( NAMED_UNIT ( * ) PLANE_ANGLE_UNIT ( ) SI_UNIT ( $, .RADIAN. ) );
#87 = PERSON_AND_ORGANIZATION ( #90, #248 ) ;
#88 = DATE_AND_TIME ( #83, #128 ) ;
#89 = APPROVAL ( #13, 'NEURÈENÝ' ) ;
#90 = PERSON ( 'NEURÈENÝ', 'NEURÈENÝ', 'NEURÈENÝ', ('NEURÈENÝ'), ('NEURÈENÝ'), ('NEURÈENÝ') ) ;
#91 = AXIS2_PLACEMENT_3D ( 'NONE', #51, #92, #123 ) ;
#92 = DIRECTION ( 'NONE',  ( 0.000000000000000000, 0.000000000000000000, 1.000000000000000000 ) ) ;
#93 = CARTESIAN_POINT ( 'NONE',  ( 2.750000000000000000, 3.367778697655220519E-16, 3.000000000000000000 ) ) ;
#94 = VECTOR ( 'NONE', #1, 1000.000000000000000 ) ;
#95 = LINE ( 'NONE', #174, #94 ) ;
#96 = ORIENTED_EDGE ( 'NONE', *, *, #30, .F. ) ;
#97 = VERTEX_POINT ( 'NONE', #149 ) ;
#98 = PLANE ( 'NONE',  #238 ) ;
#99 = CIRCLE ( 'NONE', #161, 5.000000000000000000 ) ;
#100 = CC_DESIGN_DATE_AND_TIME_ASSIGNMENT ( #82, #50, ( #108 ) ) ;
#101 = EDGE_CURVE ( 'NONE', #41, #115, #122, .T. ) ;
#102 = CYLINDRICAL_SURFACE ( 'NONE', #127, 5.000000000000000000 ) ;
#103 = AXIS2_PLACEMENT_3D ( 'NONE', #188, #75, #148 ) ;
#104 = PERSON_AND_ORGANIZATION ( #90, #248 ) ;
#105 = ADVANCED_FACE ( 'NONE', ( #112 ), #242, .T. ) ;
#106 = PLANE ( 'NONE',  #173 ) ;
#107 =( NAMED_UNIT ( * ) SI_UNIT ( $, .STERADIAN. ) SOLID_ANGLE_UNIT ( ) );
#108 = PRODUCT_DEFINITION ( 'NEZNÁMÝ', '', #158, #14 ) ;
#109 = DIRECTION ( 'NONE',  ( 1.000000000000000000, 0.000000000000000000, 0.000000000000000000 ) ) ;
#110 = VERTEX_POINT ( 'NONE', #194 ) ;
#111 = LINE ( 'NONE', #207, #162 ) ;
#112 = FACE_OUTER_BOUND ( 'NONE', #239, .T. ) ;
#113 = COORDINATED_UNIVERSAL_TIME_OFFSET ( 1, 0, .AHEAD. ) ;
#114 = DIRECTION ( 'NONE',  ( 1.000000000000000000, 0.000000000000000000, -0.000000000000000000 ) ) ;
#115 = VERTEX_POINT ( 'NONE', #254 ) ;
#116 = EDGE_CURVE ( 'NONE', #110, #203, #71, .T. ) ;
#117 = CARTESIAN_POINT ( 'NONE',  ( 0.000000000000000000, 0.000000000000000000, 500.0000000000000000 ) ) ;
#118 = ORIENTED_EDGE ( 'NONE', *, *, #116, .T. ) ;
#119 = PERSON_AND_ORGANIZATION ( #90, #248 ) ;
#120 = APPROVAL_STATUS ( 'not_yet_approved' ) ;
#121 = PERSON_AND_ORGANIZATION_ROLE ( 'design_owner' ) ;
#122 = CIRCLE ( 'NONE', #196, 2.750000000000000000 ) ;
#123 = DIRECTION ( 'NONE',  ( 1.000000000000000000, 0.000000000000000000, 0.000000000000000000 ) ) ;
#124 = SECURITY_CLASSIFICATION_LEVEL ( 'unclassified' ) ;
#125 = FACE_OUTER_BOUND ( 'NONE', #198, .T. ) ;
#126 = PERSON_AND_ORGANIZATION_ROLE ( 'creator' ) ;
#127 = AXIS2_PLACEMENT_3D ( 'NONE', #9, #202, #34 ) ;
#128 = LOCAL_TIME ( 15, 8, 20.00000000000000000, #31 ) ;
#129 = FACE_OUTER_BOUND ( 'NONE', #140, .T. ) ;
#130 = ORIENTED_EDGE ( 'NONE', *, *, #54, .F. ) ;
#131 = LINE ( 'NONE', #147, #168 ) ;
#132 = ORIENTED_EDGE ( 'NONE', *, *, #156, .F. ) ;
#133 = CARTESIAN_POINT ( 'NONE',  ( 0.000000000000000000, 0.000000000000000000, 3.000000000000000000 ) ) ;
#134 = DIRECTION ( 'NONE',  ( -0.000000000000000000, -0.000000000000000000, -1.000000000000000000 ) ) ;
#135 = ORIENTED_EDGE ( 'NONE', *, *, #220, .T. ) ;
#136 = LOCAL_TIME ( 15, 8, 20.00000000000000000, #199 ) ;
#137 = CIRCLE ( 'NONE', #151, 5.000000000000000000 ) ;
#138 = UNCERTAINTY_MEASURE_WITH_UNIT (LENGTH_MEASURE( 1.000000000000000082E-05 ), #185, 'distance_accuracy_value', 'NONE');
#139 = CC_DESIGN_APPROVAL ( #221, ( #163 ) ) ;
#140 = EDGE_LOOP ( 'NONE', ( #132, #223, #155, #96 ) ) ;
#141 = ORIENTED_EDGE ( 'NONE', *, *, #159, .F. ) ;
#142 = DIRECTION ( 'NONE',  ( -0.000000000000000000, -0.000000000000000000, -1.000000000000000000 ) ) ;
#143 = CIRCLE ( 'NONE', #42, 2.750000000000000000 ) ;
#144 = CC_DESIGN_APPROVAL ( #66, ( #108 ) ) ;
#145 = APPROVAL_DATE_TIME ( #88, #221 ) ;
#146 = AXIS2_PLACEMENT_3D ( 'NONE', #218, #240, #26 ) ;
#147 = CARTESIAN_POINT ( 'NONE',  ( 5.000000000000000000, 6.123233995736766282E-16, 3.000000000000000000 ) ) ;
#148 = DIRECTION ( 'NONE',  ( 1.000000000000000000, 0.000000000000000000, 0.000000000000000000 ) ) ;
#149 = CARTESIAN_POINT ( 'NONE',  ( -5.000000000000000000, 0.000000000000000000, 3.000000000000000000 ) ) ;
#150 = CARTESIAN_POINT ( 'NONE',  ( 0.000000000000000000, 0.000000000000000000, 0.000000000000000000 ) ) ;
#151 = AXIS2_PLACEMENT_3D ( 'NONE', #22, #154, #109 ) ;
#152 = DIRECTION ( 'NONE',  ( 1.000000000000000000, 0.000000000000000000, 0.000000000000000000 ) ) ;
#153 = ORIENTED_EDGE ( 'NONE', *, *, #208, .T. ) ;
#154 = DIRECTION ( 'NONE',  ( 0.000000000000000000, 0.000000000000000000, 1.000000000000000000 ) ) ;
#155 = ORIENTED_EDGE ( 'NONE', *, *, #54, .T. ) ;
#156 = EDGE_CURVE ( 'NONE', #10, #97, #85, .T. ) ;
#157 = EDGE_LOOP ( 'NONE', ( #193, #27 ) ) ;
#158 = PRODUCT_DEFINITION_FORMATION_WITH_SPECIFIED_SOURCE ( 'LIBOVOLNÝ', '', #184, .NOT_KNOWN. ) ;
#159 = EDGE_CURVE ( 'NONE', #10, #179, #131, .T. ) ;
#160 = CC_DESIGN_PERSON_AND_ORGANIZATION_ASSIGNMENT ( #119, #121, ( #184 ) ) ;
#161 = AXIS2_PLACEMENT_3D ( 'NONE', #169, #38, #170 ) ;
#162 = VECTOR ( 'NONE', #142, 1000.000000000000000 ) ;
#163 = SECURITY_CLASSIFICATION ( '', '', #124 ) ;
#164 = COORDINATED_UNIVERSAL_TIME_OFFSET ( 1, 0, .AHEAD. ) ;
#165 = ADVANCED_FACE ( 'NONE', ( #234, #58 ), #98, .T. ) ;
#166 = DIRECTION ( 'NONE',  ( 0.000000000000000000, 0.000000000000000000, 1.000000000000000000 ) ) ;
#167 = PERSON_AND_ORGANIZATION ( #90, #248 ) ;
#168 = VECTOR ( 'NONE', #134, 1000.000000000000000 ) ;
#169 = CARTESIAN_POINT ( 'NONE',  ( 0.000000000000000000, 0.000000000000000000, 0.000000000000000000 ) ) ;
#170 = DIRECTION ( 'NONE',  ( 1.000000000000000000, 0.000000000000000000, 0.000000000000000000 ) ) ;
#171 = ADVANCED_FACE ( 'NONE', ( #129 ), #79, .T. ) ;
#172 = CARTESIAN_POINT ( 'NONE',  ( -5.000000000000000000, 0.000000000000000000, 3.000000000000000000 ) ) ;
#173 = AXIS2_PLACEMENT_3D ( 'NONE', #56, #166, #19 ) ;
#174 = CARTESIAN_POINT ( 'NONE',  ( 2.750000000000000000, 3.367778697655220519E-16, 500.0000000000000000 ) ) ;
#175 = MECHANICAL_CONTEXT ( 'NONE', #190, 'mechanical' ) ;
#176 = CARTESIAN_POINT ( 'NONE',  ( 0.000000000000000000, 0.000000000000000000, 500.0000000000000000 ) ) ;
#177 = FACE_OUTER_BOUND ( 'NONE', #226, .T. ) ;
#178 = ORIENTED_EDGE ( 'NONE', *, *, #231, .T. ) ;
#179 = VERTEX_POINT ( 'NONE', #191 ) ;
#180 = CARTESIAN_POINT ( 'NONE',  ( 2.750000000000000000, 3.367778697655220519E-16, 500.0000000000000000 ) ) ;
#181 = DATE_AND_TIME ( #48, #136 ) ;
#182 = DATE_AND_TIME ( #209, #255 ) ;
#183 = APPROVAL_DATE_TIME ( #182, #66 ) ;
#184 = PRODUCT ( '5f33', '5f33', '', ( #175 ) ) ;
#185 =( LENGTH_UNIT ( ) NAMED_UNIT ( * ) SI_UNIT ( .MILLI., .METRE. ) );
#186 =( GEOMETRIC_REPRESENTATION_CONTEXT ( 3 ) GLOBAL_UNCERTAINTY_ASSIGNED_CONTEXT ( ( #138 ) ) GLOBAL_UNIT_ASSIGNED_CONTEXT ( ( #185, #86, #107 ) ) REPRESENTATION_CONTEXT ( 'NONE', 'WORKASPACE' ) );
#187 = DIRECTION ( 'NONE',  ( 0.000000000000000000, 0.000000000000000000, 1.000000000000000000 ) ) ;
#188 = CARTESIAN_POINT ( 'NONE',  ( 0.000000000000000000, 0.000000000000000000, 0.000000000000000000 ) ) ;
#189 = CC_DESIGN_PERSON_AND_ORGANIZATION_ASSIGNMENT ( #213, #12, ( #163 ) ) ;
#190 = APPLICATION_CONTEXT ( 'configuration controlled 3d designs of mechanical parts and assemblies' ) ;
#191 = CARTESIAN_POINT ( 'NONE',  ( 5.000000000000000000, 6.123233995736766282E-16, 0.000000000000000000 ) ) ;
#192 = DIRECTION ( 'NONE',  ( 0.000000000000000000, 0.000000000000000000, 1.000000000000000000 ) ) ;
#193 = ORIENTED_EDGE ( 'NONE', *, *, #23, .T. ) ;
#194 = CARTESIAN_POINT ( 'NONE',  ( -2.750000000000000000, 0.000000000000000000, 500.0000000000000000 ) ) ;
#195 = ORIENTED_EDGE ( 'NONE', *, *, #33, .F. ) ;
#196 = AXIS2_PLACEMENT_3D ( 'NONE', #76, #222, #25 ) ;
#197 = PRODUCT_RELATED_PRODUCT_CATEGORY ( 'detail', '', ( #184 ) ) ;
#198 = EDGE_LOOP ( 'NONE', ( #118, #135 ) ) ;
#199 = COORDINATED_UNIVERSAL_TIME_OFFSET ( 1, 0, .AHEAD. ) ;
#200 = APPROVAL_ROLE ( '' ) ;
#201 = APPLICATION_PROTOCOL_DEFINITION ( 'international standard', 'config_control_design', 1994, #53 ) ;
#202 = DIRECTION ( 'NONE',  ( -0.000000000000000000, -0.000000000000000000, -1.000000000000000000 ) ) ;
#203 = VERTEX_POINT ( 'NONE', #180 ) ;
#204 = MANIFOLD_SOLID_BREP ( 'Pøidat vysunutím3', #47 ) ;
#205 = CYLINDRICAL_SURFACE ( 'NONE', #233, 2.750000000000000000 ) ;
#206 = APPROVAL_STATUS ( 'not_yet_approved' ) ;
#207 = CARTESIAN_POINT ( 'NONE',  ( -2.750000000000000000, 0.000000000000000000, 500.0000000000000000 ) ) ;
#208 = EDGE_CURVE ( 'NONE', #203, #41, #95, .T. ) ;
#209 = CALENDAR_DATE ( 2023, 13, 2 ) ;
#210 = APPROVAL_PERSON_ORGANIZATION ( #104, #89, #72 ) ;
#211 = APPROVAL_DATE_TIME ( #252, #89 ) ;
#212 = FACE_OUTER_BOUND ( 'NONE', #78, .T. ) ;
#213 = PERSON_AND_ORGANIZATION ( #90, #248 ) ;
#214 = DIRECTION ( 'NONE',  ( -1.000000000000000000, 0.000000000000000000, 0.000000000000000000 ) ) ;
#215 = EDGE_LOOP ( 'NONE', ( #141, #6, #241, #35 ) ) ;
#216 = CARTESIAN_POINT ( 'NONE',  ( 0.000000000000000000, 0.000000000000000000, 500.0000000000000000 ) ) ;
#217 = ORIENTED_EDGE ( 'NONE', *, *, #231, .F. ) ;
#218 = CARTESIAN_POINT ( 'NONE',  ( 0.000000000000000000, 0.000000000000000000, 3.000000000000000000 ) ) ;
#219 = ORIENTED_EDGE ( 'NONE', *, *, #101, .F. ) ;
#220 = EDGE_CURVE ( 'NONE', #203, #110, #143, .T. ) ;
#221 = APPROVAL ( #120, 'NEURÈENÝ' ) ;
#222 = DIRECTION ( 'NONE',  ( 0.000000000000000000, 0.000000000000000000, 1.000000000000000000 ) ) ;
#223 = ORIENTED_EDGE ( 'NONE', *, *, #159, .T. ) ;
#224 = APPROVAL_PERSON_ORGANIZATION ( #17, #221, #200 ) ;
#225 = ADVANCED_FACE ( 'NONE', ( #177 ), #77, .F. ) ;
#226 = EDGE_LOOP ( 'NONE', ( #195, #130 ) ) ;
#227 = PRODUCT_DEFINITION_SHAPE ( 'NONE', 'NONE',  #108 ) ;
#228 = PERSON_AND_ORGANIZATION ( #90, #248 ) ;
#229 = PERSON_AND_ORGANIZATION_ROLE ( 'design_supplier' ) ;
#230 = ADVANCED_FACE ( 'NONE', ( #67 ), #102, .T. ) ;
#231 = EDGE_CURVE ( 'NONE', #115, #41, #246, .T. ) ;
#232 = CARTESIAN_POINT ( 'NONE',  ( 5.000000000000000000, 6.123233995736766282E-16, 3.000000000000000000 ) ) ;
#233 = AXIS2_PLACEMENT_3D ( 'NONE', #176, #3, #237 ) ;
#234 = FACE_BOUND ( 'NONE', #62, .T. ) ;
#235 = CC_DESIGN_DATE_AND_TIME_ASSIGNMENT ( #181, #49, ( #163 ) ) ;
#236 = CARTESIAN_POINT ( 'NONE',  ( 0.000000000000000000, 0.000000000000000000, 500.0000000000000000 ) ) ;
#237 = DIRECTION ( 'NONE',  ( -1.000000000000000000, 0.000000000000000000, 0.000000000000000000 ) ) ;
#238 = AXIS2_PLACEMENT_3D ( 'NONE', #133, #5, #45 ) ;
#239 = EDGE_LOOP ( 'NONE', ( #46, #153, #244, #24 ) ) ;
#240 = DIRECTION ( 'NONE',  ( 0.000000000000000000, 0.000000000000000000, 1.000000000000000000 ) ) ;
#241 = ORIENTED_EDGE ( 'NONE', *, *, #30, .T. ) ;
#242 = CYLINDRICAL_SURFACE ( 'NONE', #21, 2.750000000000000000 ) ;
#243 = CALENDAR_DATE ( 2023, 13, 2 ) ;
#244 = ORIENTED_EDGE ( 'NONE', *, *, #101, .T. ) ;
#245 = CIRCLE ( 'NONE', #91, 5.000000000000000000 ) ;
#246 = CIRCLE ( 'NONE', #29, 2.750000000000000000 ) ;
#247 = EDGE_CURVE ( 'NONE', #110, #115, #111, .T. ) ;
#248 = ORGANIZATION ( 'NEURÈENÝ', 'NEURÈENÝ', '' ) ;
#249 = ADVANCED_FACE ( 'NONE', ( #212 ), #205, .T. ) ;
#250 = CARTESIAN_POINT ( 'NONE',  ( 0.000000000000000000, 0.000000000000000000, 3.000000000000000000 ) ) ;
#251 = AXIS2_PLACEMENT_3D ( 'NONE', #236, #74, #60 ) ;
#252 = DATE_AND_TIME ( #243, #69 ) ;
#253 = AXIS2_PLACEMENT_3D ( 'NONE', #8, #61, #214 ) ;
#254 = CARTESIAN_POINT ( 'NONE',  ( -2.750000000000000000, 0.000000000000000000, 3.000000000000000000 ) ) ;
#255 = LOCAL_TIME ( 15, 8, 20.00000000000000000, #164 ) ;
ENDSEC;
END-ISO-10303-21;
