ISO-10303-21;
HEADER;
FILE_DESCRIPTION (( 'STEP AP203' ),
    '1' );
FILE_NAME ('c978.STEP',
    '2023-02-13T12:04:52',
    ( '' ),
    ( '' ),
    'SwSTEP 2.0',
    'SolidWorks 2019',
    '' );
FILE_SCHEMA (( 'CONFIG_CONTROL_DESIGN' ));
ENDSEC;

DATA;
#1 = DIRECTION ( 'NONE',  ( 1.000000000000000000, 0.000000000000000000, 0.000000000000000000 ) ) ;
#2 = LINE ( 'NONE', #179, #55 ) ;
#3 = CC_DESIGN_APPROVAL ( #70, ( #43 ) ) ;
#4 = DIRECTION ( 'NONE',  ( 0.000000000000000000, 0.000000000000000000, 1.000000000000000000 ) ) ;
#5 = PRODUCT_RELATED_PRODUCT_CATEGORY ( 'detail', '', ( #7 ) ) ;
#6 = EDGE_CURVE ( 'NONE', #34, #216, #200, .T. ) ;
#7 = PRODUCT ( 'c978', 'c978', '', ( #177 ) ) ;
#8 = CARTESIAN_POINT ( 'NONE',  ( 0.000000000000000000, 0.000000000000000000, 5.000000000000000000 ) ) ;
#9 = DATE_AND_TIME ( #106, #236 ) ;
#10 = DIRECTION ( 'NONE',  ( -1.000000000000000000, 0.000000000000000000, 0.000000000000000000 ) ) ;
#11 = PERSON_AND_ORGANIZATION_ROLE ( 'creator' ) ;
#12 = COORDINATED_UNIVERSAL_TIME_OFFSET ( 1, 0, .AHEAD. ) ;
#13 = FACE_OUTER_BOUND ( 'NONE', #158, .T. ) ;
#14 = DATE_AND_TIME ( #57, #155 ) ;
#15 = PERSON_AND_ORGANIZATION ( #228, #144 ) ;
#16 = ORIENTED_EDGE ( 'NONE', *, *, #157, .F. ) ;
#17 = ADVANCED_FACE ( 'NONE', ( #41 ), #121, .F. ) ;
#18 = CC_DESIGN_APPROVAL ( #242, ( #171 ) ) ;
#19 = CYLINDRICAL_SURFACE ( 'NONE', #89, 5.100000000000001421 ) ;
#20 = ORIENTED_EDGE ( 'NONE', *, *, #212, .F. ) ;
#21 = ORIENTED_EDGE ( 'NONE', *, *, #198, .T. ) ;
#22 = AXIS2_PLACEMENT_3D ( 'NONE', #159, #161, #146 ) ;
#23 = AXIS2_PLACEMENT_3D ( 'NONE', #111, #53, #90 ) ;
#24 = DIRECTION ( 'NONE',  ( 0.000000000000000000, 0.000000000000000000, 1.000000000000000000 ) ) ;
#25 = CARTESIAN_POINT ( 'NONE',  ( 0.000000000000000000, 0.000000000000000000, 5.000000000000000000 ) ) ;
#26 = SECURITY_CLASSIFICATION ( '', '', #54 ) ;
#27 = DIRECTION ( 'NONE',  ( 0.000000000000000000, 0.000000000000000000, 1.000000000000000000 ) ) ;
#28 = DIRECTION ( 'NONE',  ( -0.000000000000000000, -0.000000000000000000, -1.000000000000000000 ) ) ;
#29 =( NAMED_UNIT ( * ) PLANE_ANGLE_UNIT ( ) SI_UNIT ( $, .RADIAN. ) );
#30 = APPROVAL_PERSON_ORGANIZATION ( #163, #70, #46 ) ;
#31 = PERSON_AND_ORGANIZATION ( #228, #144 ) ;
#32 = DIRECTION ( 'NONE',  ( 1.000000000000000000, 0.000000000000000000, 0.000000000000000000 ) ) ;
#33 = PERSON_AND_ORGANIZATION ( #228, #144 ) ;
#34 = VERTEX_POINT ( 'NONE', #239 ) ;
#35 = DIRECTION ( 'NONE',  ( 1.000000000000000000, 0.000000000000000000, 0.000000000000000000 ) ) ;
#36 = ORIENTED_EDGE ( 'NONE', *, *, #59, .T. ) ;
#37 = ORIENTED_EDGE ( 'NONE', *, *, #49, .F. ) ;
#38 = CC_DESIGN_SECURITY_CLASSIFICATION ( #26, ( #171 ) ) ;
#39 = ORIENTED_EDGE ( 'NONE', *, *, #198, .F. ) ;
#40 = AXIS2_PLACEMENT_3D ( 'NONE', #25, #67, #45 ) ;
#41 = FACE_OUTER_BOUND ( 'NONE', #114, .T. ) ;
#42 = FACE_OUTER_BOUND ( 'NONE', #60, .T. ) ;
#43 = PRODUCT_DEFINITION ( 'NEZNÁMÝ', '', #171, #186 ) ;
#44 = DIRECTION ( 'NONE',  ( 0.000000000000000000, 0.000000000000000000, 1.000000000000000000 ) ) ;
#45 = DIRECTION ( 'NONE',  ( -1.000000000000000000, 0.000000000000000000, 0.000000000000000000 ) ) ;
#46 = APPROVAL_ROLE ( '' ) ;
#47 = DIRECTION ( 'NONE',  ( 1.000000000000000000, 0.000000000000000000, 0.000000000000000000 ) ) ;
#48 = DATE_AND_TIME ( #222, #116 ) ;
#49 = EDGE_CURVE ( 'NONE', #216, #119, #127, .T. ) ;
#50 = UNCERTAINTY_MEASURE_WITH_UNIT (LENGTH_MEASURE( 1.000000000000000082E-05 ), #52, 'distance_accuracy_value', 'NONE');
#51 = PERSON_AND_ORGANIZATION ( #228, #144 ) ;
#52 =( LENGTH_UNIT ( ) NAMED_UNIT ( * ) SI_UNIT ( .MILLI., .METRE. ) );
#53 = DIRECTION ( 'NONE',  ( 0.000000000000000000, 0.000000000000000000, 1.000000000000000000 ) ) ;
#54 = SECURITY_CLASSIFICATION_LEVEL ( 'unclassified' ) ;
#55 = VECTOR ( 'NONE', #28, 1000.000000000000000 ) ;
#56 = CARTESIAN_POINT ( 'NONE',  ( 0.000000000000000000, 0.000000000000000000, 125.0000000000000000 ) ) ;
#57 = CALENDAR_DATE ( 2023, 13, 2 ) ;
#58 = EDGE_LOOP ( 'NONE', ( #61, #36, #193, #37 ) ) ;
#59 = EDGE_CURVE ( 'NONE', #34, #139, #2, .T. ) ;
#60 = EDGE_LOOP ( 'NONE', ( #174, #97, #234, #98 ) ) ;
#61 = ORIENTED_EDGE ( 'NONE', *, *, #6, .F. ) ;
#62 = AXIS2_PLACEMENT_3D ( 'NONE', #63, #105, #102 ) ;
#63 = CARTESIAN_POINT ( 'NONE',  ( 0.000000000000000000, 0.000000000000000000, 5.000000000000000000 ) ) ;
#64 = LINE ( 'NONE', #160, #244 ) ;
#65 = FACE_OUTER_BOUND ( 'NONE', #96, .T. ) ;
#66 = PERSON_AND_ORGANIZATION_ROLE ( 'design_owner' ) ;
#67 = DIRECTION ( 'NONE',  ( -0.000000000000000000, -0.000000000000000000, -1.000000000000000000 ) ) ;
#68 = PERSON_AND_ORGANIZATION ( #228, #144 ) ;
#69 = CALENDAR_DATE ( 2023, 13, 2 ) ;
#70 = APPROVAL ( #147, 'NEURÈENÝ' ) ;
#71 = CARTESIAN_POINT ( 'NONE',  ( 5.100000000000001421, 6.245698675651502811E-16, 125.0000000000000000 ) ) ;
#72 = ORIENTED_EDGE ( 'NONE', *, *, #255, .F. ) ;
#73 = ADVANCED_FACE ( 'NONE', ( #65 ), #199, .T. ) ;
#74 = AXIS2_PLACEMENT_3D ( 'NONE', #8, #27, #241 ) ;
#75 = EDGE_LOOP ( 'NONE', ( #237, #16 ) ) ;
#76 = ORIENTED_EDGE ( 'NONE', *, *, #212, .T. ) ;
#77 = CC_DESIGN_PERSON_AND_ORGANIZATION_ASSIGNMENT ( #117, #235, ( #26 ) ) ;
#78 = ORIENTED_EDGE ( 'NONE', *, *, #157, .T. ) ;
#79 = ORIENTED_EDGE ( 'NONE', *, *, #253, .T. ) ;
#80 = CARTESIAN_POINT ( 'NONE',  ( 0.000000000000000000, 0.000000000000000000, 125.0000000000000000 ) ) ;
#81 = CC_DESIGN_PERSON_AND_ORGANIZATION_ASSIGNMENT ( #238, #66, ( #7 ) ) ;
#82 = CIRCLE ( 'NONE', #232, 5.100000000000001421 ) ;
#83 = CARTESIAN_POINT ( 'NONE',  ( 0.000000000000000000, 0.000000000000000000, 5.000000000000000000 ) ) ;
#84 = CYLINDRICAL_SURFACE ( 'NONE', #22, 5.100000000000001421 ) ;
#85 = ADVANCED_FACE ( 'NONE', ( #145 ), #84, .T. ) ;
#86 = ADVANCED_FACE ( 'NONE', ( #88 ), #178, .T. ) ;
#87 = AXIS2_PLACEMENT_3D ( 'NONE', #141, #138, #254 ) ;
#88 = FACE_OUTER_BOUND ( 'NONE', #58, .T. ) ;
#89 = AXIS2_PLACEMENT_3D ( 'NONE', #245, #152, #10 ) ;
#90 = DIRECTION ( 'NONE',  ( 1.000000000000000000, 0.000000000000000000, 0.000000000000000000 ) ) ;
#91 = DATE_TIME_ROLE ( 'creation_date' ) ;
#92 = EDGE_CURVE ( 'NONE', #154, #156, #170, .T. ) ;
#93 = DATE_AND_TIME ( #69, #124 ) ;
#94 = CARTESIAN_POINT ( 'NONE',  ( 5.100000000000001421, 6.245698675651502811E-16, 5.000000000000000000 ) ) ;
#95 = AXIS2_PLACEMENT_3D ( 'NONE', #83, #221, #182 ) ;
#96 = EDGE_LOOP ( 'NONE', ( #135, #137 ) ) ;
#97 = ORIENTED_EDGE ( 'NONE', *, *, #253, .F. ) ;
#98 = ORIENTED_EDGE ( 'NONE', *, *, #214, .T. ) ;
#99 = APPROVAL_PERSON_ORGANIZATION ( #31, #188, #167 ) ;
#100 = EDGE_CURVE ( 'NONE', #172, #213, #183, .T. ) ;
#101 = CARTESIAN_POINT ( 'NONE',  ( -5.100000000000001421, 0.000000000000000000, 125.0000000000000000 ) ) ;
#102 = DIRECTION ( 'NONE',  ( -1.000000000000000000, 0.000000000000000000, 0.000000000000000000 ) ) ;
#103 = LOCAL_TIME ( 13, 4, 52.00000000000000000, #110 ) ;
#104 = CARTESIAN_POINT ( 'NONE',  ( 0.000000000000000000, 0.000000000000000000, 5.000000000000000000 ) ) ;
#105 = DIRECTION ( 'NONE',  ( -0.000000000000000000, -0.000000000000000000, -1.000000000000000000 ) ) ;
#106 = CALENDAR_DATE ( 2023, 13, 2 ) ;
#107 = AXIS2_PLACEMENT_3D ( 'NONE', #191, #240, #35 ) ;
#108 = APPLICATION_CONTEXT ( 'configuration controlled 3d designs of mechanical parts and assemblies' ) ;
#109 = APPLICATION_PROTOCOL_DEFINITION ( 'international standard', 'config_control_design', 1994, #201 ) ;
#110 = COORDINATED_UNIVERSAL_TIME_OFFSET ( 1, 0, .AHEAD. ) ;
#111 = CARTESIAN_POINT ( 'NONE',  ( 0.000000000000000000, 0.000000000000000000, 0.000000000000000000 ) ) ;
#112 = CC_DESIGN_APPROVAL ( #188, ( #26 ) ) ;
#113 = CC_DESIGN_PERSON_AND_ORGANIZATION_ASSIGNMENT ( #51, #11, ( #43 ) ) ;
#114 = EDGE_LOOP ( 'NONE', ( #195, #153 ) ) ;
#115 = ADVANCED_FACE ( 'NONE', ( #42 ), #197, .T. ) ;
#116 = LOCAL_TIME ( 13, 4, 52.00000000000000000, #165 ) ;
#117 = PERSON_AND_ORGANIZATION ( #228, #144 ) ;
#118 = DIRECTION ( 'NONE',  ( 1.000000000000000000, 0.000000000000000000, -0.000000000000000000 ) ) ;
#119 = VERTEX_POINT ( 'NONE', #123 ) ;
#120 = COORDINATED_UNIVERSAL_TIME_OFFSET ( 1, 0, .AHEAD. ) ;
#121 = PLANE ( 'NONE',  #131 ) ;
#122 = CARTESIAN_POINT ( 'NONE',  ( 8.000000000000000000, 9.797174393178825657E-16, 0.000000000000000000 ) ) ;
#123 = CARTESIAN_POINT ( 'NONE',  ( -8.000000000000000000, 0.000000000000000000, 0.000000000000000000 ) ) ;
#124 = LOCAL_TIME ( 13, 4, 52.00000000000000000, #12 ) ;
#125 = CARTESIAN_POINT ( 'NONE',  ( 0.000000000000000000, 0.000000000000000000, 125.0000000000000000 ) ) ;
#126 = COORDINATED_UNIVERSAL_TIME_OFFSET ( 1, 0, .AHEAD. ) ;
#127 = LINE ( 'NONE', #164, #175 ) ;
#128 = DIRECTION ( 'NONE',  ( 0.000000000000000000, 0.000000000000000000, 1.000000000000000000 ) ) ;
#129 = ADVANCED_FACE ( 'NONE', ( #218, #203 ), #223, .T. ) ;
#130 = APPROVAL_STATUS ( 'not_yet_approved' ) ;
#131 = AXIS2_PLACEMENT_3D ( 'NONE', #247, #215, #118 ) ;
#132 = CC_DESIGN_PERSON_AND_ORGANIZATION_ASSIGNMENT ( #15, #246, ( #171 ) ) ;
#133 = VECTOR ( 'NONE', #230, 1000.000000000000000 ) ;
#134 = DATE_TIME_ROLE ( 'classification_date' ) ;
#135 = ORIENTED_EDGE ( 'NONE', *, *, #92, .T. ) ;
#136 = CC_DESIGN_DATE_AND_TIME_ASSIGNMENT ( #9, #91, ( #43 ) ) ;
#137 = ORIENTED_EDGE ( 'NONE', *, *, #255, .T. ) ;
#138 = DIRECTION ( 'NONE',  ( 0.000000000000000000, 0.000000000000000000, 1.000000000000000000 ) ) ;
#139 = VERTEX_POINT ( 'NONE', #122 ) ;
#140 = EDGE_CURVE ( 'NONE', #139, #119, #205, .T. ) ;
#141 = CARTESIAN_POINT ( 'NONE',  ( 0.000000000000000000, 0.000000000000000000, 5.000000000000000000 ) ) ;
#142 = AXIS2_PLACEMENT_3D ( 'NONE', #104, #44, #219 ) ;
#143 = DIRECTION ( 'NONE',  ( 0.000000000000000000, 0.000000000000000000, 1.000000000000000000 ) ) ;
#144 = ORGANIZATION ( 'NEURÈENÝ', 'NEURÈENÝ', '' ) ;
#145 = FACE_OUTER_BOUND ( 'NONE', #176, .T. ) ;
#146 = DIRECTION ( 'NONE',  ( -1.000000000000000000, 0.000000000000000000, 0.000000000000000000 ) ) ;
#147 = APPROVAL_STATUS ( 'not_yet_approved' ) ;
#148 = DIRECTION ( 'NONE',  ( -0.000000000000000000, -0.000000000000000000, -1.000000000000000000 ) ) ;
#149 = APPROVAL_DATE_TIME ( #189, #242 ) ;
#150 = DIRECTION ( 'NONE',  ( -0.000000000000000000, -0.000000000000000000, -1.000000000000000000 ) ) ;
#151 = AXIS2_PLACEMENT_3D ( 'NONE', #80, #4, #181 ) ;
#152 = DIRECTION ( 'NONE',  ( -0.000000000000000000, -0.000000000000000000, -1.000000000000000000 ) ) ;
#153 = ORIENTED_EDGE ( 'NONE', *, *, #140, .F. ) ;
#154 = VERTEX_POINT ( 'NONE', #101 ) ;
#155 = LOCAL_TIME ( 13, 4, 52.00000000000000000, #120 ) ;
#156 = VERTEX_POINT ( 'NONE', #202 ) ;
#157 = EDGE_CURVE ( 'NONE', #213, #172, #184, .T. ) ;
#158 = EDGE_LOOP ( 'NONE', ( #72, #76, #78, #39 ) ) ;
#159 = CARTESIAN_POINT ( 'NONE',  ( 0.000000000000000000, 0.000000000000000000, 125.0000000000000000 ) ) ;
#160 = CARTESIAN_POINT ( 'NONE',  ( -5.100000000000001421, 0.000000000000000000, 125.0000000000000000 ) ) ;
#161 = DIRECTION ( 'NONE',  ( -0.000000000000000000, -0.000000000000000000, -1.000000000000000000 ) ) ;
#162 = AXIS2_PLACEMENT_3D ( 'NONE', #125, #143, #47 ) ;
#163 = PERSON_AND_ORGANIZATION ( #228, #144 ) ;
#164 = CARTESIAN_POINT ( 'NONE',  ( -8.000000000000000000, 0.000000000000000000, 5.000000000000000000 ) ) ;
#165 = COORDINATED_UNIVERSAL_TIME_OFFSET ( 1, 0, .AHEAD. ) ;
#166 = CARTESIAN_POINT ( 'NONE',  ( -8.000000000000000000, 0.000000000000000000, 5.000000000000000000 ) ) ;
#167 = APPROVAL_ROLE ( '' ) ;
#168 = APPROVAL_ROLE ( '' ) ;
#169 = CARTESIAN_POINT ( 'NONE',  ( 0.000000000000000000, 0.000000000000000000, 5.000000000000000000 ) ) ;
#170 = CIRCLE ( 'NONE', #162, 5.100000000000001421 ) ;
#171 = PRODUCT_DEFINITION_FORMATION_WITH_SPECIFIED_SOURCE ( 'LIBOVOLNÝ', '', #7, .NOT_KNOWN. ) ;
#172 = VERTEX_POINT ( 'NONE', #243 ) ;
#173 = PRODUCT_DEFINITION_SHAPE ( 'NONE', 'NONE',  #43 ) ;
#174 = ORIENTED_EDGE ( 'NONE', *, *, #59, .F. ) ;
#175 = VECTOR ( 'NONE', #148, 1000.000000000000000 ) ;
#176 = EDGE_LOOP ( 'NONE', ( #20, #251, #21, #233 ) ) ;
#177 = MECHANICAL_CONTEXT ( 'NONE', #201, 'mechanical' ) ;
#178 = CYLINDRICAL_SURFACE ( 'NONE', #40, 8.000000000000000000 ) ;
#179 = CARTESIAN_POINT ( 'NONE',  ( 8.000000000000000000, 9.797174393178825657E-16, 5.000000000000000000 ) ) ;
#180 = CARTESIAN_POINT ( 'NONE',  ( 0.000000000000000000, 0.000000000000000000, 0.000000000000000000 ) ) ;
#181 = DIRECTION ( 'NONE',  ( 1.000000000000000000, 0.000000000000000000, -0.000000000000000000 ) ) ;
#182 = DIRECTION ( 'NONE',  ( 1.000000000000000000, 0.000000000000000000, 0.000000000000000000 ) ) ;
#183 = CIRCLE ( 'NONE', #95, 5.100000000000001421 ) ;
#184 = CIRCLE ( 'NONE', #74, 5.100000000000001421 ) ;
#185 = SHAPE_DEFINITION_REPRESENTATION ( #173, #196 ) ;
#186 = DESIGN_CONTEXT ( 'detailed design', #108, 'design' ) ;
#187 = APPLICATION_PROTOCOL_DEFINITION ( 'international standard', 'config_control_design', 1994, #108 ) ;
#188 = APPROVAL ( #229, 'NEURÈENÝ' ) ;
#189 = DATE_AND_TIME ( #210, #103 ) ;
#190 = CLOSED_SHELL ( 'NONE', ( #220, #86, #115, #129, #17, #85, #73 ) ) ;
#191 = CARTESIAN_POINT ( 'NONE',  ( 0.000000000000000000, 0.000000000000000000, 0.000000000000000000 ) ) ;
#192 = CIRCLE ( 'NONE', #23, 8.000000000000000000 ) ;
#193 = ORIENTED_EDGE ( 'NONE', *, *, #140, .T. ) ;
#194 = ORIENTED_EDGE ( 'NONE', *, *, #6, .T. ) ;
#195 = ORIENTED_EDGE ( 'NONE', *, *, #214, .F. ) ;
#196 = ADVANCED_BREP_SHAPE_REPRESENTATION ( 'c978', ( #248, #107 ), #217 ) ;
#197 = CYLINDRICAL_SURFACE ( 'NONE', #62, 8.000000000000000000 ) ;
#198 = EDGE_CURVE ( 'NONE', #154, #172, #64, .T. ) ;
#199 = PLANE ( 'NONE',  #151 ) ;
#200 = CIRCLE ( 'NONE', #87, 8.000000000000000000 ) ;
#201 = APPLICATION_CONTEXT ( 'configuration controlled 3d designs of mechanical parts and assemblies' ) ;
#202 = CARTESIAN_POINT ( 'NONE',  ( 5.100000000000001421, 6.245698675651502811E-16, 125.0000000000000000 ) ) ;
#203 = FACE_OUTER_BOUND ( 'NONE', #252, .T. ) ;
#204 = AXIS2_PLACEMENT_3D ( 'NONE', #180, #24, #1 ) ;
#205 = CIRCLE ( 'NONE', #204, 8.000000000000000000 ) ;
#206 = APPROVAL_DATE_TIME ( #48, #70 ) ;
#207 = DIRECTION ( 'NONE',  ( 0.000000000000000000, 0.000000000000000000, 1.000000000000000000 ) ) ;
#208 = CIRCLE ( 'NONE', #226, 8.000000000000000000 ) ;
#209 = CC_DESIGN_DATE_AND_TIME_ASSIGNMENT ( #14, #134, ( #26 ) ) ;
#210 = CALENDAR_DATE ( 2023, 13, 2 ) ;
#211 =( NAMED_UNIT ( * ) SI_UNIT ( $, .STERADIAN. ) SOLID_ANGLE_UNIT ( ) );
#212 = EDGE_CURVE ( 'NONE', #156, #213, #225, .T. ) ;
#213 = VERTEX_POINT ( 'NONE', #94 ) ;
#214 = EDGE_CURVE ( 'NONE', #119, #139, #192, .T. ) ;
#215 = DIRECTION ( 'NONE',  ( 0.000000000000000000, 0.000000000000000000, 1.000000000000000000 ) ) ;
#216 = VERTEX_POINT ( 'NONE', #166 ) ;
#217 =( GEOMETRIC_REPRESENTATION_CONTEXT ( 3 ) GLOBAL_UNCERTAINTY_ASSIGNED_CONTEXT ( ( #50 ) ) GLOBAL_UNIT_ASSIGNED_CONTEXT ( ( #52, #29, #211 ) ) REPRESENTATION_CONTEXT ( 'NONE', 'WORKASPACE' ) );
#218 = FACE_BOUND ( 'NONE', #75, .T. ) ;
#219 = DIRECTION ( 'NONE',  ( 1.000000000000000000, 0.000000000000000000, -0.000000000000000000 ) ) ;
#220 = ADVANCED_FACE ( 'NONE', ( #13 ), #19, .T. ) ;
#221 = DIRECTION ( 'NONE',  ( 0.000000000000000000, 0.000000000000000000, 1.000000000000000000 ) ) ;
#222 = CALENDAR_DATE ( 2023, 13, 2 ) ;
#223 = PLANE ( 'NONE',  #142 ) ;
#224 = APPROVAL_DATE_TIME ( #93, #188 ) ;
#225 = LINE ( 'NONE', #71, #133 ) ;
#226 = AXIS2_PLACEMENT_3D ( 'NONE', #169, #128, #231 ) ;
#227 = PERSON_AND_ORGANIZATION_ROLE ( 'design_supplier' ) ;
#228 = PERSON ( 'NEURÈENÝ', 'NEURÈENÝ', 'NEURÈENÝ', ('NEURÈENÝ'), ('NEURÈENÝ'), ('NEURÈENÝ') ) ;
#229 = APPROVAL_STATUS ( 'not_yet_approved' ) ;
#230 = DIRECTION ( 'NONE',  ( -0.000000000000000000, -0.000000000000000000, -1.000000000000000000 ) ) ;
#231 = DIRECTION ( 'NONE',  ( 1.000000000000000000, 0.000000000000000000, 0.000000000000000000 ) ) ;
#232 = AXIS2_PLACEMENT_3D ( 'NONE', #56, #207, #32 ) ;
#233 = ORIENTED_EDGE ( 'NONE', *, *, #100, .T. ) ;
#234 = ORIENTED_EDGE ( 'NONE', *, *, #49, .T. ) ;
#235 = PERSON_AND_ORGANIZATION_ROLE ( 'classification_officer' ) ;
#236 = LOCAL_TIME ( 13, 4, 52.00000000000000000, #126 ) ;
#237 = ORIENTED_EDGE ( 'NONE', *, *, #100, .F. ) ;
#238 = PERSON_AND_ORGANIZATION ( #228, #144 ) ;
#239 = CARTESIAN_POINT ( 'NONE',  ( 8.000000000000000000, 9.797174393178825657E-16, 5.000000000000000000 ) ) ;
#240 = DIRECTION ( 'NONE',  ( 0.000000000000000000, 0.000000000000000000, 1.000000000000000000 ) ) ;
#241 = DIRECTION ( 'NONE',  ( 1.000000000000000000, 0.000000000000000000, 0.000000000000000000 ) ) ;
#242 = APPROVAL ( #130, 'NEURÈENÝ' ) ;
#243 = CARTESIAN_POINT ( 'NONE',  ( -5.100000000000001421, 0.000000000000000000, 5.000000000000000000 ) ) ;
#244 = VECTOR ( 'NONE', #150, 1000.000000000000000 ) ;
#245 = CARTESIAN_POINT ( 'NONE',  ( 0.000000000000000000, 0.000000000000000000, 125.0000000000000000 ) ) ;
#246 = PERSON_AND_ORGANIZATION_ROLE ( 'creator' ) ;
#247 = CARTESIAN_POINT ( 'NONE',  ( 0.000000000000000000, 0.000000000000000000, 0.000000000000000000 ) ) ;
#248 = MANIFOLD_SOLID_BREP ( 'Pøidat vysunutím3', #190 ) ;
#249 = APPROVAL_PERSON_ORGANIZATION ( #68, #242, #168 ) ;
#250 = CC_DESIGN_PERSON_AND_ORGANIZATION_ASSIGNMENT ( #33, #227, ( #171 ) ) ;
#251 = ORIENTED_EDGE ( 'NONE', *, *, #92, .F. ) ;
#252 = EDGE_LOOP ( 'NONE', ( #79, #194 ) ) ;
#253 = EDGE_CURVE ( 'NONE', #216, #34, #208, .T. ) ;
#254 = DIRECTION ( 'NONE',  ( 1.000000000000000000, 0.000000000000000000, 0.000000000000000000 ) ) ;
#255 = EDGE_CURVE ( 'NONE', #156, #154, #82, .T. ) ;
ENDSEC;
END-ISO-10303-21;
