ISO-10303-21;
HEADER;
FILE_DESCRIPTION (( 'STEP AP203' ),
    '1' );
FILE_NAME ('0e7d.STEP',
    '2023-02-13T14:05:49',
    ( '' ),
    ( '' ),
    'SwSTEP 2.0',
    'SolidWorks 2019',
    '' );
FILE_SCHEMA (( 'CONFIG_CONTROL_DESIGN' ));
ENDSEC;

DATA;
#1 = ADVANCED_BREP_SHAPE_REPRESENTATION ( '0e7d', ( #222, #178 ), #158 ) ;
#2 = EDGE_LOOP ( 'NONE', ( #136, #28, #175, #97 ) ) ;
#3 = CALENDAR_DATE ( 2023, 13, 2 ) ;
#4 = DIRECTION ( 'NONE',  ( -1.000000000000000000, 0.000000000000000000, 0.000000000000000000 ) ) ;
#5 = DIRECTION ( 'NONE',  ( 1.000000000000000000, 0.000000000000000000, 0.000000000000000000 ) ) ;
#6 = VERTEX_POINT ( 'NONE', #197 ) ;
#7 = CARTESIAN_POINT ( 'NONE',  ( -6.000000000000000888, 0.000000000000000000, 5.000000000000000000 ) ) ;
#8 = ADVANCED_FACE ( 'NONE', ( #179 ), #174, .T. ) ;
#9 = CIRCLE ( 'NONE', #194, 3.100000000000000089 ) ;
#10 = DIRECTION ( 'NONE',  ( 0.000000000000000000, 0.000000000000000000, 1.000000000000000000 ) ) ;
#11 = CIRCLE ( 'NONE', #106, 6.000000000000000888 ) ;
#12 = CARTESIAN_POINT ( 'NONE',  ( 0.000000000000000000, 0.000000000000000000, 0.000000000000000000 ) ) ;
#13 = EDGE_CURVE ( 'NONE', #203, #43, #241, .T. ) ;
#14 = CYLINDRICAL_SURFACE ( 'NONE', #135, 3.100000000000000089 ) ;
#15 = APPLICATION_PROTOCOL_DEFINITION ( 'international standard', 'config_control_design', 1994, #111 ) ;
#16 = PERSON_AND_ORGANIZATION_ROLE ( 'classification_officer' ) ;
#17 = AXIS2_PLACEMENT_3D ( 'NONE', #73, #228, #51 ) ;
#18 = PERSON_AND_ORGANIZATION_ROLE ( 'design_owner' ) ;
#19 = APPROVAL_ROLE ( '' ) ;
#20 = CC_DESIGN_PERSON_AND_ORGANIZATION_ASSIGNMENT ( #112, #151, ( #53 ) ) ;
#21 = UNCERTAINTY_MEASURE_WITH_UNIT (LENGTH_MEASURE( 1.000000000000000082E-05 ), #245, 'distance_accuracy_value', 'NONE');
#22 = AXIS2_PLACEMENT_3D ( 'NONE', #161, #123, #107 ) ;
#23 = EDGE_LOOP ( 'NONE', ( #255, #96 ) ) ;
#24 = AXIS2_PLACEMENT_3D ( 'NONE', #150, #235, #114 ) ;
#25 = PERSON_AND_ORGANIZATION ( #92, #122 ) ;
#26 = ORIENTED_EDGE ( 'NONE', *, *, #149, .F. ) ;
#27 = EDGE_LOOP ( 'NONE', ( #155, #59 ) ) ;
#28 = ORIENTED_EDGE ( 'NONE', *, *, #200, .T. ) ;
#29 = EDGE_CURVE ( 'NONE', #43, #203, #11, .T. ) ;
#30 = DIRECTION ( 'NONE',  ( -1.000000000000000000, 0.000000000000000000, 0.000000000000000000 ) ) ;
#31 = DIRECTION ( 'NONE',  ( 1.000000000000000000, 0.000000000000000000, 0.000000000000000000 ) ) ;
#32 = CARTESIAN_POINT ( 'NONE',  ( 0.000000000000000000, 0.000000000000000000, 5.000000000000000000 ) ) ;
#33 = CC_DESIGN_PERSON_AND_ORGANIZATION_ASSIGNMENT ( #110, #189, ( #53 ) ) ;
#34 = FACE_OUTER_BOUND ( 'NONE', #195, .T. ) ;
#35 = COORDINATED_UNIVERSAL_TIME_OFFSET ( 1, 0, .AHEAD. ) ;
#36 = CALENDAR_DATE ( 2023, 13, 2 ) ;
#37 = DATE_AND_TIME ( #211, #190 ) ;
#38 = ADVANCED_FACE ( 'NONE', ( #117 ), #243, .T. ) ;
#39 = APPLICATION_CONTEXT ( 'configuration controlled 3d designs of mechanical parts and assemblies' ) ;
#40 = ORIENTED_EDGE ( 'NONE', *, *, #29, .T. ) ;
#41 = ORIENTED_EDGE ( 'NONE', *, *, #108, .T. ) ;
#42 = VECTOR ( 'NONE', #185, 1000.000000000000000 ) ;
#43 = VERTEX_POINT ( 'NONE', #198 ) ;
#44 = VERTEX_POINT ( 'NONE', #66 ) ;
#45 = EDGE_CURVE ( 'NONE', #201, #44, #77, .T. ) ;
#46 = CARTESIAN_POINT ( 'NONE',  ( -3.100000000000000089, 0.000000000000000000, 5.000000000000000000 ) ) ;
#47 = CYLINDRICAL_SURFACE ( 'NONE', #172, 6.000000000000000888 ) ;
#48 = DIRECTION ( 'NONE',  ( 1.000000000000000000, 0.000000000000000000, -0.000000000000000000 ) ) ;
#49 = AXIS2_PLACEMENT_3D ( 'NONE', #138, #102, #156 ) ;
#50 = DIRECTION ( 'NONE',  ( 1.000000000000000000, 0.000000000000000000, 0.000000000000000000 ) ) ;
#51 = DIRECTION ( 'NONE',  ( 1.000000000000000000, 0.000000000000000000, 0.000000000000000000 ) ) ;
#52 = CC_DESIGN_APPROVAL ( #167, ( #221 ) ) ;
#53 = PRODUCT_DEFINITION_FORMATION_WITH_SPECIFIED_SOURCE ( 'LIBOVOLNÝ', '', #202, .NOT_KNOWN. ) ;
#54 = EDGE_CURVE ( 'NONE', #137, #201, #121, .T. ) ;
#55 = DATE_TIME_ROLE ( 'creation_date' ) ;
#56 = VECTOR ( 'NONE', #251, 1000.000000000000000 ) ;
#57 = CARTESIAN_POINT ( 'NONE',  ( 0.000000000000000000, 0.000000000000000000, 0.000000000000000000 ) ) ;
#58 = ADVANCED_FACE ( 'NONE', ( #246 ), #143, .F. ) ;
#59 = ORIENTED_EDGE ( 'NONE', *, *, #170, .T. ) ;
#60 = APPROVAL_STATUS ( 'not_yet_approved' ) ;
#61 = ORIENTED_EDGE ( 'NONE', *, *, #130, .F. ) ;
#62 = APPROVAL_DATE_TIME ( #254, #167 ) ;
#63 = VERTEX_POINT ( 'NONE', #247 ) ;
#64 = VERTEX_POINT ( 'NONE', #72 ) ;
#65 = CC_DESIGN_DATE_AND_TIME_ASSIGNMENT ( #236, #55, ( #142 ) ) ;
#66 = CARTESIAN_POINT ( 'NONE',  ( 3.100000000000000089, 3.796405077356794918E-16, 5.000000000000000000 ) ) ;
#67 = CIRCLE ( 'NONE', #22, 6.000000000000000888 ) ;
#68 = DIRECTION ( 'NONE',  ( 1.000000000000000000, 0.000000000000000000, -0.000000000000000000 ) ) ;
#69 = LINE ( 'NONE', #7, #163 ) ;
#70 = CARTESIAN_POINT ( 'NONE',  ( 3.100000000000000089, 3.796405077356794918E-16, 160.0000000000000000 ) ) ;
#71 = LOCAL_TIME ( 15, 5, 49.00000000000000000, #35 ) ;
#72 = CARTESIAN_POINT ( 'NONE',  ( -6.000000000000000888, 0.000000000000000000, 5.000000000000000000 ) ) ;
#73 = CARTESIAN_POINT ( 'NONE',  ( 0.000000000000000000, 0.000000000000000000, 5.000000000000000000 ) ) ;
#74 = APPROVAL ( #233, 'NEURÈENÝ' ) ;
#75 = COORDINATED_UNIVERSAL_TIME_OFFSET ( 1, 0, .AHEAD. ) ;
#76 = CIRCLE ( 'NONE', #103, 3.100000000000000089 ) ;
#77 = CIRCLE ( 'NONE', #49, 3.100000000000000089 ) ;
#78 = ORIENTED_EDGE ( 'NONE', *, *, #170, .F. ) ;
#79 = DIRECTION ( 'NONE',  ( 0.000000000000000000, 0.000000000000000000, 1.000000000000000000 ) ) ;
#80 = PERSON_AND_ORGANIZATION ( #92, #122 ) ;
#81 = ORIENTED_EDGE ( 'NONE', *, *, #82, .T. ) ;
#82 = EDGE_CURVE ( 'NONE', #6, #137, #87, .T. ) ;
#83 = DIRECTION ( 'NONE',  ( -0.000000000000000000, -0.000000000000000000, -1.000000000000000000 ) ) ;
#84 = EDGE_LOOP ( 'NONE', ( #133, #61, #242, #131 ) ) ;
#85 = DIRECTION ( 'NONE',  ( 0.000000000000000000, 0.000000000000000000, 1.000000000000000000 ) ) ;
#86 = CARTESIAN_POINT ( 'NONE',  ( -3.100000000000000089, 0.000000000000000000, 160.0000000000000000 ) ) ;
#87 = CIRCLE ( 'NONE', #134, 3.100000000000000089 ) ;
#88 = DIRECTION ( 'NONE',  ( 1.000000000000000000, 0.000000000000000000, 0.000000000000000000 ) ) ;
#89 = DIRECTION ( 'NONE',  ( 0.000000000000000000, 0.000000000000000000, 1.000000000000000000 ) ) ;
#90 = CARTESIAN_POINT ( 'NONE',  ( 6.000000000000000888, 7.347880794884120722E-16, 5.000000000000000000 ) ) ;
#91 = PERSON_AND_ORGANIZATION ( #92, #122 ) ;
#92 = PERSON ( 'NEURÈENÝ', 'NEURÈENÝ', 'NEURÈENÝ', ('NEURÈENÝ'), ('NEURÈENÝ'), ('NEURÈENÝ') ) ;
#93 = DIRECTION ( 'NONE',  ( 1.000000000000000000, 0.000000000000000000, 0.000000000000000000 ) ) ;
#94 = COORDINATED_UNIVERSAL_TIME_OFFSET ( 1, 0, .AHEAD. ) ;
#95 = ADVANCED_FACE ( 'NONE', ( #34 ), #109, .T. ) ;
#96 = ORIENTED_EDGE ( 'NONE', *, *, #219, .F. ) ;
#97 = ORIENTED_EDGE ( 'NONE', *, *, #54, .F. ) ;
#98 = APPLICATION_PROTOCOL_DEFINITION ( 'international standard', 'config_control_design', 1994, #39 ) ;
#99 = DIRECTION ( 'NONE',  ( 0.000000000000000000, 0.000000000000000000, 1.000000000000000000 ) ) ;
#100 = ADVANCED_FACE ( 'NONE', ( #230 ), #14, .T. ) ;
#101 = APPROVAL_PERSON_ORGANIZATION ( #238, #167, #19 ) ;
#102 = DIRECTION ( 'NONE',  ( 0.000000000000000000, 0.000000000000000000, 1.000000000000000000 ) ) ;
#103 = AXIS2_PLACEMENT_3D ( 'NONE', #183, #10, #88 ) ;
#104 = DIRECTION ( 'NONE',  ( -1.000000000000000000, 0.000000000000000000, 0.000000000000000000 ) ) ;
#105 = FACE_OUTER_BOUND ( 'NONE', #27, .T. ) ;
#106 = AXIS2_PLACEMENT_3D ( 'NONE', #217, #99, #5 ) ;
#107 = DIRECTION ( 'NONE',  ( 1.000000000000000000, 0.000000000000000000, 0.000000000000000000 ) ) ;
#108 = EDGE_CURVE ( 'NONE', #63, #43, #144, .T. ) ;
#109 = PLANE ( 'NONE',  #115 ) ;
#110 = PERSON_AND_ORGANIZATION ( #92, #122 ) ;
#111 = APPLICATION_CONTEXT ( 'configuration controlled 3d designs of mechanical parts and assemblies' ) ;
#112 = PERSON_AND_ORGANIZATION ( #92, #122 ) ;
#113 = DATE_TIME_ROLE ( 'classification_date' ) ;
#114 = DIRECTION ( 'NONE',  ( -1.000000000000000000, 0.000000000000000000, 0.000000000000000000 ) ) ;
#115 = AXIS2_PLACEMENT_3D ( 'NONE', #145, #224, #68 ) ;
#116 = CARTESIAN_POINT ( 'NONE',  ( 0.000000000000000000, 0.000000000000000000, 160.0000000000000000 ) ) ;
#117 = FACE_OUTER_BOUND ( 'NONE', #84, .T. ) ;
#118 = ORIENTED_EDGE ( 'NONE', *, *, #13, .T. ) ;
#119 = ORIENTED_EDGE ( 'NONE', *, *, #130, .T. ) ;
#120 = CC_DESIGN_PERSON_AND_ORGANIZATION_ASSIGNMENT ( #168, #147, ( #142 ) ) ;
#121 = LINE ( 'NONE', #140, #56 ) ;
#122 = ORGANIZATION ( 'NEURÈENÝ', 'NEURÈENÝ', '' ) ;
#123 = DIRECTION ( 'NONE',  ( 0.000000000000000000, 0.000000000000000000, 1.000000000000000000 ) ) ;
#124 = AXIS2_PLACEMENT_3D ( 'NONE', #116, #83, #4 ) ;
#125 = CC_DESIGN_PERSON_AND_ORGANIZATION_ASSIGNMENT ( #80, #18, ( #202 ) ) ;
#126 = CARTESIAN_POINT ( 'NONE',  ( 0.000000000000000000, 0.000000000000000000, 160.0000000000000000 ) ) ;
#127 = CARTESIAN_POINT ( 'NONE',  ( 0.000000000000000000, 0.000000000000000000, 5.000000000000000000 ) ) ;
#128 = APPROVAL_ROLE ( '' ) ;
#129 = SECURITY_CLASSIFICATION_LEVEL ( 'unclassified' ) ;
#130 = EDGE_CURVE ( 'NONE', #137, #6, #76, .T. ) ;
#131 = ORIENTED_EDGE ( 'NONE', *, *, #45, .T. ) ;
#132 = COORDINATED_UNIVERSAL_TIME_OFFSET ( 1, 0, .AHEAD. ) ;
#133 = ORIENTED_EDGE ( 'NONE', *, *, #200, .F. ) ;
#134 = AXIS2_PLACEMENT_3D ( 'NONE', #126, #89, #31 ) ;
#135 = AXIS2_PLACEMENT_3D ( 'NONE', #141, #204, #104 ) ;
#136 = ORIENTED_EDGE ( 'NONE', *, *, #82, .F. ) ;
#137 = VERTEX_POINT ( 'NONE', #86 ) ;
#138 = CARTESIAN_POINT ( 'NONE',  ( 0.000000000000000000, 0.000000000000000000, 5.000000000000000000 ) ) ;
#139 = PRODUCT_DEFINITION_SHAPE ( 'NONE', 'NONE',  #142 ) ;
#140 = CARTESIAN_POINT ( 'NONE',  ( -3.100000000000000089, 0.000000000000000000, 160.0000000000000000 ) ) ;
#141 = CARTESIAN_POINT ( 'NONE',  ( 0.000000000000000000, 0.000000000000000000, 160.0000000000000000 ) ) ;
#142 = PRODUCT_DEFINITION ( 'NEZNÁMÝ', '', #53, #173 ) ;
#143 = PLANE ( 'NONE',  #227 ) ;
#144 = LINE ( 'NONE', #90, #42 ) ;
#145 = CARTESIAN_POINT ( 'NONE',  ( 0.000000000000000000, 0.000000000000000000, 160.0000000000000000 ) ) ;
#146 = APPROVAL_ROLE ( '' ) ;
#147 = PERSON_AND_ORGANIZATION_ROLE ( 'creator' ) ;
#148 = DIRECTION ( 'NONE',  ( 0.000000000000000000, 0.000000000000000000, 1.000000000000000000 ) ) ;
#149 = EDGE_CURVE ( 'NONE', #64, #63, #67, .T. ) ;
#150 = CARTESIAN_POINT ( 'NONE',  ( 0.000000000000000000, 0.000000000000000000, 5.000000000000000000 ) ) ;
#151 = PERSON_AND_ORGANIZATION_ROLE ( 'design_supplier' ) ;
#152 = DIRECTION ( 'NONE',  ( 1.000000000000000000, 0.000000000000000000, 0.000000000000000000 ) ) ;
#153 = LOCAL_TIME ( 15, 5, 49.00000000000000000, #210 ) ;
#154 = DATE_AND_TIME ( #36, #71 ) ;
#155 = ORIENTED_EDGE ( 'NONE', *, *, #149, .T. ) ;
#156 = DIRECTION ( 'NONE',  ( 1.000000000000000000, 0.000000000000000000, 0.000000000000000000 ) ) ;
#157 = ORIENTED_EDGE ( 'NONE', *, *, #108, .F. ) ;
#158 =( GEOMETRIC_REPRESENTATION_CONTEXT ( 3 ) GLOBAL_UNCERTAINTY_ASSIGNED_CONTEXT ( ( #21 ) ) GLOBAL_UNIT_ASSIGNED_CONTEXT ( ( #245, #181, #232 ) ) REPRESENTATION_CONTEXT ( 'NONE', 'WORKASPACE' ) );
#159 = DIRECTION ( 'NONE',  ( -0.000000000000000000, -0.000000000000000000, -1.000000000000000000 ) ) ;
#160 = AXIS2_PLACEMENT_3D ( 'NONE', #237, #79, #152 ) ;
#161 = CARTESIAN_POINT ( 'NONE',  ( 0.000000000000000000, 0.000000000000000000, 5.000000000000000000 ) ) ;
#162 = DIRECTION ( 'NONE',  ( 0.000000000000000000, 0.000000000000000000, 1.000000000000000000 ) ) ;
#163 = VECTOR ( 'NONE', #159, 1000.000000000000000 ) ;
#164 = DIRECTION ( 'NONE',  ( 0.000000000000000000, 0.000000000000000000, 1.000000000000000000 ) ) ;
#165 = FACE_BOUND ( 'NONE', #23, .T. ) ;
#166 = PERSON_AND_ORGANIZATION ( #92, #122 ) ;
#167 = APPROVAL ( #192, 'NEURÈENÝ' ) ;
#168 = PERSON_AND_ORGANIZATION ( #92, #122 ) ;
#169 = CC_DESIGN_APPROVAL ( #214, ( #142 ) ) ;
#170 = EDGE_CURVE ( 'NONE', #63, #64, #205, .T. ) ;
#171 = CALENDAR_DATE ( 2023, 13, 2 ) ;
#172 = AXIS2_PLACEMENT_3D ( 'NONE', #32, #226, #30 ) ;
#173 = DESIGN_CONTEXT ( 'detailed design', #39, 'design' ) ;
#174 = CYLINDRICAL_SURFACE ( 'NONE', #24, 6.000000000000000888 ) ;
#175 = ORIENTED_EDGE ( 'NONE', *, *, #219, .T. ) ;
#176 = CALENDAR_DATE ( 2023, 13, 2 ) ;
#177 = EDGE_LOOP ( 'NONE', ( #218, #215 ) ) ;
#178 = AXIS2_PLACEMENT_3D ( 'NONE', #57, #148, #93 ) ;
#179 = FACE_OUTER_BOUND ( 'NONE', #220, .T. ) ;
#180 = ORIENTED_EDGE ( 'NONE', *, *, #191, .T. ) ;
#181 =( NAMED_UNIT ( * ) PLANE_ANGLE_UNIT ( ) SI_UNIT ( $, .RADIAN. ) );
#182 = APPROVAL_PERSON_ORGANIZATION ( #166, #74, #128 ) ;
#183 = CARTESIAN_POINT ( 'NONE',  ( 0.000000000000000000, 0.000000000000000000, 160.0000000000000000 ) ) ;
#184 = PLANE ( 'NONE',  #199 ) ;
#185 = DIRECTION ( 'NONE',  ( -0.000000000000000000, -0.000000000000000000, -1.000000000000000000 ) ) ;
#186 = DIRECTION ( 'NONE',  ( 1.000000000000000000, 0.000000000000000000, -0.000000000000000000 ) ) ;
#187 = CC_DESIGN_DATE_AND_TIME_ASSIGNMENT ( #37, #113, ( #221 ) ) ;
#188 = CLOSED_SHELL ( 'NONE', ( #100, #239, #8, #249, #58, #38, #95 ) ) ;
#189 = PERSON_AND_ORGANIZATION_ROLE ( 'creator' ) ;
#190 = LOCAL_TIME ( 15, 5, 49.00000000000000000, #75 ) ;
#191 = EDGE_CURVE ( 'NONE', #64, #203, #69, .T. ) ;
#192 = APPROVAL_STATUS ( 'not_yet_approved' ) ;
#193 = CC_DESIGN_SECURITY_CLASSIFICATION ( #221, ( #53 ) ) ;
#194 = AXIS2_PLACEMENT_3D ( 'NONE', #127, #164, #50 ) ;
#195 = EDGE_LOOP ( 'NONE', ( #119, #81 ) ) ;
#196 = DATE_AND_TIME ( #3, #153 ) ;
#197 = CARTESIAN_POINT ( 'NONE',  ( 3.100000000000000089, 3.796405077356794918E-16, 160.0000000000000000 ) ) ;
#198 = CARTESIAN_POINT ( 'NONE',  ( 6.000000000000000888, 7.347880794884120722E-16, 0.000000000000000000 ) ) ;
#199 = AXIS2_PLACEMENT_3D ( 'NONE', #207, #162, #48 ) ;
#200 = EDGE_CURVE ( 'NONE', #6, #44, #208, .T. ) ;
#201 = VERTEX_POINT ( 'NONE', #46 ) ;
#202 = PRODUCT ( '0e7d', '0e7d', '', ( #216 ) ) ;
#203 = VERTEX_POINT ( 'NONE', #225 ) ;
#204 = DIRECTION ( 'NONE',  ( -0.000000000000000000, -0.000000000000000000, -1.000000000000000000 ) ) ;
#205 = CIRCLE ( 'NONE', #17, 6.000000000000000888 ) ;
#206 = FACE_OUTER_BOUND ( 'NONE', #240, .T. ) ;
#207 = CARTESIAN_POINT ( 'NONE',  ( 0.000000000000000000, 0.000000000000000000, 5.000000000000000000 ) ) ;
#208 = LINE ( 'NONE', #70, #244 ) ;
#209 = SHAPE_DEFINITION_REPRESENTATION ( #139, #1 ) ;
#210 = COORDINATED_UNIVERSAL_TIME_OFFSET ( 1, 0, .AHEAD. ) ;
#211 = CALENDAR_DATE ( 2023, 13, 2 ) ;
#212 = APPROVAL_DATE_TIME ( #196, #74 ) ;
#213 = LOCAL_TIME ( 15, 5, 49.00000000000000000, #132 ) ;
#214 = APPROVAL ( #60, 'NEURÈENÝ' ) ;
#215 = ORIENTED_EDGE ( 'NONE', *, *, #29, .F. ) ;
#216 = MECHANICAL_CONTEXT ( 'NONE', #111, 'mechanical' ) ;
#217 = CARTESIAN_POINT ( 'NONE',  ( 0.000000000000000000, 0.000000000000000000, 0.000000000000000000 ) ) ;
#218 = ORIENTED_EDGE ( 'NONE', *, *, #13, .F. ) ;
#219 = EDGE_CURVE ( 'NONE', #44, #201, #9, .T. ) ;
#220 = EDGE_LOOP ( 'NONE', ( #157, #26, #180, #118 ) ) ;
#221 = SECURITY_CLASSIFICATION ( '', '', #129 ) ;
#222 = MANIFOLD_SOLID_BREP ( 'Pøidat vysunutím3', #188 ) ;
#223 = ORIENTED_EDGE ( 'NONE', *, *, #191, .F. ) ;
#224 = DIRECTION ( 'NONE',  ( 0.000000000000000000, 0.000000000000000000, 1.000000000000000000 ) ) ;
#225 = CARTESIAN_POINT ( 'NONE',  ( -6.000000000000000888, 0.000000000000000000, 0.000000000000000000 ) ) ;
#226 = DIRECTION ( 'NONE',  ( -0.000000000000000000, -0.000000000000000000, -1.000000000000000000 ) ) ;
#227 = AXIS2_PLACEMENT_3D ( 'NONE', #12, #85, #186 ) ;
#228 = DIRECTION ( 'NONE',  ( 0.000000000000000000, 0.000000000000000000, 1.000000000000000000 ) ) ;
#229 = PRODUCT_RELATED_PRODUCT_CATEGORY ( 'detail', '', ( #202 ) ) ;
#230 = FACE_OUTER_BOUND ( 'NONE', #2, .T. ) ;
#231 = CC_DESIGN_APPROVAL ( #74, ( #53 ) ) ;
#232 =( NAMED_UNIT ( * ) SI_UNIT ( $, .STERADIAN. ) SOLID_ANGLE_UNIT ( ) );
#233 = APPROVAL_STATUS ( 'not_yet_approved' ) ;
#234 = CC_DESIGN_PERSON_AND_ORGANIZATION_ASSIGNMENT ( #25, #16, ( #221 ) ) ;
#235 = DIRECTION ( 'NONE',  ( -0.000000000000000000, -0.000000000000000000, -1.000000000000000000 ) ) ;
#236 = DATE_AND_TIME ( #176, #213 ) ;
#237 = CARTESIAN_POINT ( 'NONE',  ( 0.000000000000000000, 0.000000000000000000, 0.000000000000000000 ) ) ;
#238 = PERSON_AND_ORGANIZATION ( #92, #122 ) ;
#239 = ADVANCED_FACE ( 'NONE', ( #206 ), #47, .T. ) ;
#240 = EDGE_LOOP ( 'NONE', ( #78, #41, #40, #223 ) ) ;
#241 = CIRCLE ( 'NONE', #160, 6.000000000000000888 ) ;
#242 = ORIENTED_EDGE ( 'NONE', *, *, #54, .T. ) ;
#243 = CYLINDRICAL_SURFACE ( 'NONE', #124, 3.100000000000000089 ) ;
#244 = VECTOR ( 'NONE', #250, 1000.000000000000000 ) ;
#245 =( LENGTH_UNIT ( ) NAMED_UNIT ( * ) SI_UNIT ( .MILLI., .METRE. ) );
#246 = FACE_OUTER_BOUND ( 'NONE', #177, .T. ) ;
#247 = CARTESIAN_POINT ( 'NONE',  ( 6.000000000000000888, 7.347880794884120722E-16, 5.000000000000000000 ) ) ;
#248 = LOCAL_TIME ( 15, 5, 49.00000000000000000, #94 ) ;
#249 = ADVANCED_FACE ( 'NONE', ( #165, #105 ), #184, .T. ) ;
#250 = DIRECTION ( 'NONE',  ( -0.000000000000000000, -0.000000000000000000, -1.000000000000000000 ) ) ;
#251 = DIRECTION ( 'NONE',  ( -0.000000000000000000, -0.000000000000000000, -1.000000000000000000 ) ) ;
#252 = APPROVAL_PERSON_ORGANIZATION ( #91, #214, #146 ) ;
#253 = APPROVAL_DATE_TIME ( #154, #214 ) ;
#254 = DATE_AND_TIME ( #171, #248 ) ;
#255 = ORIENTED_EDGE ( 'NONE', *, *, #45, .F. ) ;
ENDSEC;
END-ISO-10303-21;
