ISO-10303-21;
HEADER;
FILE_DESCRIPTION (( 'STEP AP203' ),
    '1' );
FILE_NAME ('2e3e.STEP',
    '2023-02-13T11:11:02',
    ( '' ),
    ( '' ),
    'SwSTEP 2.0',
    'SolidWorks 2019',
    '' );
FILE_SCHEMA (( 'CONFIG_CONTROL_DESIGN' ));
ENDSEC;

DATA;
#1 = LOCAL_TIME ( 12, 11, 2.000000000000000000, #92 ) ;
#2 = CC_DESIGN_APPROVAL ( #151, ( #114 ) ) ;
#3 = AXIS2_PLACEMENT_3D ( 'NONE', #17, #30, #245 ) ;
#4 = ORIENTED_EDGE ( 'NONE', *, *, #222, .F. ) ;
#5 = EDGE_CURVE ( 'NONE', #192, #148, #59, .T. ) ;
#6 = APPROVAL_DATE_TIME ( #42, #169 ) ;
#7 = LOCAL_TIME ( 12, 11, 2.000000000000000000, #241 ) ;
#8 = EDGE_LOOP ( 'NONE', ( #202, #167, #29, #162 ) ) ;
#9 = CALENDAR_DATE ( 2023, 13, 2 ) ;
#10 = EDGE_LOOP ( 'NONE', ( #206, #221 ) ) ;
#11 = AXIS2_PLACEMENT_3D ( 'NONE', #34, #102, #33 ) ;
#12 = CIRCLE ( 'NONE', #141, 8.000000000000000000 ) ;
#13 = CARTESIAN_POINT ( 'NONE',  ( 0.000000000000000000, 0.000000000000000000, 100.0000000000000000 ) ) ;
#14 = MANIFOLD_SOLID_BREP ( 'Pøidat vysunutím3', #123 ) ;
#15 = PERSON_AND_ORGANIZATION ( #149, #131 ) ;
#16 = CARTESIAN_POINT ( 'NONE',  ( 0.000000000000000000, 0.000000000000000000, 100.0000000000000000 ) ) ;
#17 = CARTESIAN_POINT ( 'NONE',  ( 0.000000000000000000, 0.000000000000000000, 5.000000000000000000 ) ) ;
#18 = FACE_OUTER_BOUND ( 'NONE', #98, .T. ) ;
#19 = DIRECTION ( 'NONE',  ( -0.000000000000000000, -0.000000000000000000, -1.000000000000000000 ) ) ;
#20 = PERSON_AND_ORGANIZATION_ROLE ( 'creator' ) ;
#21 = CARTESIAN_POINT ( 'NONE',  ( 0.000000000000000000, 0.000000000000000000, 100.0000000000000000 ) ) ;
#22 = CIRCLE ( 'NONE', #163, 5.500000000000000000 ) ;
#23 =( NAMED_UNIT ( * ) PLANE_ANGLE_UNIT ( ) SI_UNIT ( $, .RADIAN. ) );
#24 = AXIS2_PLACEMENT_3D ( 'NONE', #213, #32, #107 ) ;
#25 = AXIS2_PLACEMENT_3D ( 'NONE', #150, #226, #49 ) ;
#26 = ORIENTED_EDGE ( 'NONE', *, *, #240, .F. ) ;
#27 = DATE_TIME_ROLE ( 'classification_date' ) ;
#28 = APPROVAL_STATUS ( 'not_yet_approved' ) ;
#29 = ORIENTED_EDGE ( 'NONE', *, *, #5, .T. ) ;
#30 = DIRECTION ( 'NONE',  ( 0.000000000000000000, 0.000000000000000000, 1.000000000000000000 ) ) ;
#31 = CARTESIAN_POINT ( 'NONE',  ( -5.500000000000000000, 0.000000000000000000, 5.000000000000000000 ) ) ;
#32 = DIRECTION ( 'NONE',  ( 0.000000000000000000, 0.000000000000000000, 1.000000000000000000 ) ) ;
#33 = DIRECTION ( 'NONE',  ( 1.000000000000000000, 0.000000000000000000, -0.000000000000000000 ) ) ;
#34 = CARTESIAN_POINT ( 'NONE',  ( 0.000000000000000000, 0.000000000000000000, 5.000000000000000000 ) ) ;
#35 = DIRECTION ( 'NONE',  ( 1.000000000000000000, 0.000000000000000000, 0.000000000000000000 ) ) ;
#36 = ADVANCED_FACE ( 'NONE', ( #129 ), #211, .F. ) ;
#37 = DIRECTION ( 'NONE',  ( 1.000000000000000000, 0.000000000000000000, 0.000000000000000000 ) ) ;
#38 = LINE ( 'NONE', #139, #126 ) ;
#39 = DIRECTION ( 'NONE',  ( -0.000000000000000000, -0.000000000000000000, -1.000000000000000000 ) ) ;
#40 = EDGE_LOOP ( 'NONE', ( #165, #82, #84, #244 ) ) ;
#41 = DIRECTION ( 'NONE',  ( 0.000000000000000000, 0.000000000000000000, 1.000000000000000000 ) ) ;
#42 = DATE_AND_TIME ( #166, #44 ) ;
#43 = PERSON_AND_ORGANIZATION_ROLE ( 'design_supplier' ) ;
#44 = LOCAL_TIME ( 12, 11, 2.000000000000000000, #190 ) ;
#45 = DIRECTION ( 'NONE',  ( 0.000000000000000000, 0.000000000000000000, 1.000000000000000000 ) ) ;
#46 = CALENDAR_DATE ( 2023, 13, 2 ) ;
#47 = DIRECTION ( 'NONE',  ( 1.000000000000000000, 0.000000000000000000, 0.000000000000000000 ) ) ;
#48 = CIRCLE ( 'NONE', #198, 8.000000000000000000 ) ;
#49 = DIRECTION ( 'NONE',  ( 1.000000000000000000, 0.000000000000000000, 0.000000000000000000 ) ) ;
#50 =( GEOMETRIC_REPRESENTATION_CONTEXT ( 3 ) GLOBAL_UNCERTAINTY_ASSIGNED_CONTEXT ( ( #133 ) ) GLOBAL_UNIT_ASSIGNED_CONTEXT ( ( #113, #23, #111 ) ) REPRESENTATION_CONTEXT ( 'NONE', 'WORKASPACE' ) );
#51 = FACE_BOUND ( 'NONE', #10, .T. ) ;
#52 = DIRECTION ( 'NONE',  ( -1.000000000000000000, 0.000000000000000000, 0.000000000000000000 ) ) ;
#53 = AXIS2_PLACEMENT_3D ( 'NONE', #71, #90, #191 ) ;
#54 = APPROVAL_DATE_TIME ( #110, #232 ) ;
#55 = PERSON_AND_ORGANIZATION_ROLE ( 'design_owner' ) ;
#56 = PERSON_AND_ORGANIZATION ( #149, #131 ) ;
#57 = ADVANCED_FACE ( 'NONE', ( #18 ), #194, .T. ) ;
#58 = CARTESIAN_POINT ( 'NONE',  ( 5.500000000000000000, 6.735557395310442023E-16, 5.000000000000000000 ) ) ;
#59 = CIRCLE ( 'NONE', #24, 8.000000000000000000 ) ;
#60 = EDGE_LOOP ( 'NONE', ( #251, #140 ) ) ;
#61 = PRODUCT ( '2e3e', '2e3e', '', ( #72 ) ) ;
#62 = CYLINDRICAL_SURFACE ( 'NONE', #155, 5.500000000000000000 ) ;
#63 = ORIENTED_EDGE ( 'NONE', *, *, #95, .T. ) ;
#64 = APPROVAL_ROLE ( '' ) ;
#65 = ORIENTED_EDGE ( 'NONE', *, *, #222, .T. ) ;
#66 = PERSON_AND_ORGANIZATION ( #149, #131 ) ;
#67 = CARTESIAN_POINT ( 'NONE',  ( 8.000000000000000000, 9.797174393178825657E-16, 5.000000000000000000 ) ) ;
#68 = DIRECTION ( 'NONE',  ( -1.000000000000000000, 0.000000000000000000, 0.000000000000000000 ) ) ;
#69 = DIRECTION ( 'NONE',  ( 0.000000000000000000, 0.000000000000000000, 1.000000000000000000 ) ) ;
#70 = CC_DESIGN_SECURITY_CLASSIFICATION ( #114, ( #231 ) ) ;
#71 = CARTESIAN_POINT ( 'NONE',  ( 0.000000000000000000, 0.000000000000000000, 0.000000000000000000 ) ) ;
#72 = MECHANICAL_CONTEXT ( 'NONE', #183, 'mechanical' ) ;
#73 = APPROVAL_PERSON_ORGANIZATION ( #56, #169, #64 ) ;
#74 = APPLICATION_PROTOCOL_DEFINITION ( 'international standard', 'config_control_design', 1994, #183 ) ;
#75 = CARTESIAN_POINT ( 'NONE',  ( -8.000000000000000000, 0.000000000000000000, 5.000000000000000000 ) ) ;
#76 = CARTESIAN_POINT ( 'NONE',  ( 0.000000000000000000, 0.000000000000000000, 0.000000000000000000 ) ) ;
#77 = EDGE_CURVE ( 'NONE', #235, #119, #80, .T. ) ;
#78 = EDGE_CURVE ( 'NONE', #79, #81, #94, .T. ) ;
#79 = VERTEX_POINT ( 'NONE', #67 ) ;
#80 = CIRCLE ( 'NONE', #3, 5.500000000000000000 ) ;
#81 = VERTEX_POINT ( 'NONE', #212 ) ;
#82 = ORIENTED_EDGE ( 'NONE', *, *, #83, .T. ) ;
#83 = EDGE_CURVE ( 'NONE', #238, #235, #177, .T. ) ;
#84 = ORIENTED_EDGE ( 'NONE', *, *, #77, .T. ) ;
#85 = VECTOR ( 'NONE', #227, 1000.000000000000000 ) ;
#86 = AXIS2_PLACEMENT_3D ( 'NONE', #237, #41, #178 ) ;
#87 = LINE ( 'NONE', #173, #106 ) ;
#88 = CARTESIAN_POINT ( 'NONE',  ( 0.000000000000000000, 0.000000000000000000, 5.000000000000000000 ) ) ;
#89 = CC_DESIGN_PERSON_AND_ORGANIZATION_ASSIGNMENT ( #195, #20, ( #108 ) ) ;
#90 = DIRECTION ( 'NONE',  ( 0.000000000000000000, 0.000000000000000000, 1.000000000000000000 ) ) ;
#91 = ORIENTED_EDGE ( 'NONE', *, *, #184, .T. ) ;
#92 = COORDINATED_UNIVERSAL_TIME_OFFSET ( 1, 0, .AHEAD. ) ;
#93 = APPROVAL_STATUS ( 'not_yet_approved' ) ;
#94 = CIRCLE ( 'NONE', #186, 8.000000000000000000 ) ;
#95 = EDGE_CURVE ( 'NONE', #238, #193, #229, .T. ) ;
#96 = EDGE_LOOP ( 'NONE', ( #65, #242 ) ) ;
#97 = ADVANCED_BREP_SHAPE_REPRESENTATION ( '2e3e', ( #14, #86 ), #50 ) ;
#98 = EDGE_LOOP ( 'NONE', ( #185, #26, #225, #91 ) ) ;
#99 = ADVANCED_FACE ( 'NONE', ( #51, #128 ), #124, .T. ) ;
#100 = LOCAL_TIME ( 12, 11, 2.000000000000000000, #254 ) ;
#101 = DATE_AND_TIME ( #9, #7 ) ;
#102 = DIRECTION ( 'NONE',  ( 0.000000000000000000, 0.000000000000000000, 1.000000000000000000 ) ) ;
#103 = CC_DESIGN_PERSON_AND_ORGANIZATION_ASSIGNMENT ( #142, #55, ( #61 ) ) ;
#104 = CYLINDRICAL_SURFACE ( 'NONE', #130, 8.000000000000000000 ) ;
#105 = CARTESIAN_POINT ( 'NONE',  ( 0.000000000000000000, 0.000000000000000000, 100.0000000000000000 ) ) ;
#106 = VECTOR ( 'NONE', #247, 1000.000000000000000 ) ;
#107 = DIRECTION ( 'NONE',  ( 1.000000000000000000, 0.000000000000000000, 0.000000000000000000 ) ) ;
#108 = PRODUCT_DEFINITION ( 'NEZNÁMÝ', '', #231, #180 ) ;
#109 = CARTESIAN_POINT ( 'NONE',  ( 0.000000000000000000, 0.000000000000000000, 5.000000000000000000 ) ) ;
#110 = DATE_AND_TIME ( #230, #100 ) ;
#111 =( NAMED_UNIT ( * ) SI_UNIT ( $, .STERADIAN. ) SOLID_ANGLE_UNIT ( ) );
#112 = DIRECTION ( 'NONE',  ( 0.000000000000000000, 0.000000000000000000, 1.000000000000000000 ) ) ;
#113 =( LENGTH_UNIT ( ) NAMED_UNIT ( * ) SI_UNIT ( .MILLI., .METRE. ) );
#114 = SECURITY_CLASSIFICATION ( '', '', #224 ) ;
#115 = CARTESIAN_POINT ( 'NONE',  ( -5.500000000000000000, 0.000000000000000000, 100.0000000000000000 ) ) ;
#116 = ADVANCED_FACE ( 'NONE', ( #252 ), #228, .T. ) ;
#117 = ORIENTED_EDGE ( 'NONE', *, *, #248, .T. ) ;
#118 = DATE_AND_TIME ( #46, #157 ) ;
#119 = VERTEX_POINT ( 'NONE', #31 ) ;
#120 = PERSON_AND_ORGANIZATION_ROLE ( 'classification_officer' ) ;
#121 = DIRECTION ( 'NONE',  ( 1.000000000000000000, 0.000000000000000000, -0.000000000000000000 ) ) ;
#122 = ADVANCED_FACE ( 'NONE', ( #223 ), #189, .T. ) ;
#123 = CLOSED_SHELL ( 'NONE', ( #219, #170, #116, #99, #36, #57, #122 ) ) ;
#124 = PLANE ( 'NONE',  #11 ) ;
#125 = COORDINATED_UNIVERSAL_TIME_OFFSET ( 1, 0, .AHEAD. ) ;
#126 = VECTOR ( 'NONE', #197, 1000.000000000000000 ) ;
#127 = CARTESIAN_POINT ( 'NONE',  ( 8.000000000000000000, 9.797174393178825657E-16, 0.000000000000000000 ) ) ;
#128 = FACE_OUTER_BOUND ( 'NONE', #96, .T. ) ;
#129 = FACE_OUTER_BOUND ( 'NONE', #60, .T. ) ;
#130 = AXIS2_PLACEMENT_3D ( 'NONE', #174, #250, #68 ) ;
#131 = ORGANIZATION ( 'NEURÈENÝ', 'NEURÈENÝ', '' ) ;
#132 = APPLICATION_PROTOCOL_DEFINITION ( 'international standard', 'config_control_design', 1994, #138 ) ;
#133 = UNCERTAINTY_MEASURE_WITH_UNIT (LENGTH_MEASURE( 1.000000000000000082E-05 ), #113, 'distance_accuracy_value', 'NONE');
#134 = FACE_OUTER_BOUND ( 'NONE', #40, .T. ) ;
#135 = CC_DESIGN_PERSON_AND_ORGANIZATION_ASSIGNMENT ( #15, #43, ( #231 ) ) ;
#136 = DIRECTION ( 'NONE',  ( 0.000000000000000000, 0.000000000000000000, 1.000000000000000000 ) ) ;
#137 = AXIS2_PLACEMENT_3D ( 'NONE', #16, #69, #47 ) ;
#138 = APPLICATION_CONTEXT ( 'configuration controlled 3d designs of mechanical parts and assemblies' ) ;
#139 = CARTESIAN_POINT ( 'NONE',  ( 8.000000000000000000, 9.797174393178825657E-16, 5.000000000000000000 ) ) ;
#140 = ORIENTED_EDGE ( 'NONE', *, *, #5, .F. ) ;
#141 = AXIS2_PLACEMENT_3D ( 'NONE', #217, #136, #35 ) ;
#142 = PERSON_AND_ORGANIZATION ( #149, #131 ) ;
#143 = ORIENTED_EDGE ( 'NONE', *, *, #240, .T. ) ;
#144 = ORIENTED_EDGE ( 'NONE', *, *, #216, .T. ) ;
#145 = DIRECTION ( 'NONE',  ( -1.000000000000000000, 0.000000000000000000, 0.000000000000000000 ) ) ;
#146 = CC_DESIGN_PERSON_AND_ORGANIZATION_ASSIGNMENT ( #249, #147, ( #231 ) ) ;
#147 = PERSON_AND_ORGANIZATION_ROLE ( 'creator' ) ;
#148 = VERTEX_POINT ( 'NONE', #208 ) ;
#149 = PERSON ( 'NEURÈENÝ', 'NEURÈENÝ', 'NEURÈENÝ', ('NEURÈENÝ'), ('NEURÈENÝ'), ('NEURÈENÝ') ) ;
#150 = CARTESIAN_POINT ( 'NONE',  ( 0.000000000000000000, 0.000000000000000000, 5.000000000000000000 ) ) ;
#151 = APPROVAL ( #28, 'NEURÈENÝ' ) ;
#152 = DIRECTION ( 'NONE',  ( 1.000000000000000000, 0.000000000000000000, 0.000000000000000000 ) ) ;
#153 = DIRECTION ( 'NONE',  ( 0.000000000000000000, 0.000000000000000000, 1.000000000000000000 ) ) ;
#154 = APPROVAL_ROLE ( '' ) ;
#155 = AXIS2_PLACEMENT_3D ( 'NONE', #21, #253, #215 ) ;
#156 = CC_DESIGN_DATE_AND_TIME_ASSIGNMENT ( #158, #233, ( #108 ) ) ;
#157 = LOCAL_TIME ( 12, 11, 2.000000000000000000, #125 ) ;
#158 = DATE_AND_TIME ( #179, #1 ) ;
#159 = AXIS2_PLACEMENT_3D ( 'NONE', #109, #19, #145 ) ;
#160 = EDGE_CURVE ( 'NONE', #193, #119, #87, .T. ) ;
#161 = CC_DESIGN_APPROVAL ( #232, ( #108 ) ) ;
#162 = ORIENTED_EDGE ( 'NONE', *, *, #216, .F. ) ;
#163 = AXIS2_PLACEMENT_3D ( 'NONE', #199, #112, #37 ) ;
#164 = APPROVAL_ROLE ( '' ) ;
#165 = ORIENTED_EDGE ( 'NONE', *, *, #95, .F. ) ;
#166 = CALENDAR_DATE ( 2023, 13, 2 ) ;
#167 = ORIENTED_EDGE ( 'NONE', *, *, #203, .T. ) ;
#168 = SHAPE_DEFINITION_REPRESENTATION ( #207, #97 ) ;
#169 = APPROVAL ( #187, 'NEURÈENÝ' ) ;
#170 = ADVANCED_FACE ( 'NONE', ( #209 ), #104, .T. ) ;
#171 = DIRECTION ( 'NONE',  ( -0.000000000000000000, -0.000000000000000000, -1.000000000000000000 ) ) ;
#172 = VECTOR ( 'NONE', #39, 1000.000000000000000 ) ;
#173 = CARTESIAN_POINT ( 'NONE',  ( -5.500000000000000000, 0.000000000000000000, 100.0000000000000000 ) ) ;
#174 = CARTESIAN_POINT ( 'NONE',  ( 0.000000000000000000, 0.000000000000000000, 5.000000000000000000 ) ) ;
#175 = AXIS2_PLACEMENT_3D ( 'NONE', #13, #45, #121 ) ;
#176 = CARTESIAN_POINT ( 'NONE',  ( 5.500000000000000000, 6.735557395310442023E-16, 100.0000000000000000 ) ) ;
#177 = LINE ( 'NONE', #176, #85 ) ;
#178 = DIRECTION ( 'NONE',  ( 1.000000000000000000, 0.000000000000000000, 0.000000000000000000 ) ) ;
#179 = CALENDAR_DATE ( 2023, 13, 2 ) ;
#180 = DESIGN_CONTEXT ( 'detailed design', #138, 'design' ) ;
#181 = DIRECTION ( 'NONE',  ( 1.000000000000000000, 0.000000000000000000, 0.000000000000000000 ) ) ;
#182 = CIRCLE ( 'NONE', #25, 5.500000000000000000 ) ;
#183 = APPLICATION_CONTEXT ( 'configuration controlled 3d designs of mechanical parts and assemblies' ) ;
#184 = EDGE_CURVE ( 'NONE', #119, #235, #182, .T. ) ;
#185 = ORIENTED_EDGE ( 'NONE', *, *, #83, .F. ) ;
#186 = AXIS2_PLACEMENT_3D ( 'NONE', #88, #153, #152 ) ;
#187 = APPROVAL_STATUS ( 'not_yet_approved' ) ;
#188 = EDGE_LOOP ( 'NONE', ( #143, #63 ) ) ;
#189 = PLANE ( 'NONE',  #175 ) ;
#190 = COORDINATED_UNIVERSAL_TIME_OFFSET ( 1, 0, .AHEAD. ) ;
#191 = DIRECTION ( 'NONE',  ( 1.000000000000000000, 0.000000000000000000, -0.000000000000000000 ) ) ;
#192 = VERTEX_POINT ( 'NONE', #127 ) ;
#193 = VERTEX_POINT ( 'NONE', #115 ) ;
#194 = CYLINDRICAL_SURFACE ( 'NONE', #196, 5.500000000000000000 ) ;
#195 = PERSON_AND_ORGANIZATION ( #149, #131 ) ;
#196 = AXIS2_PLACEMENT_3D ( 'NONE', #105, #171, #52 ) ;
#197 = DIRECTION ( 'NONE',  ( -0.000000000000000000, -0.000000000000000000, -1.000000000000000000 ) ) ;
#198 = AXIS2_PLACEMENT_3D ( 'NONE', #76, #201, #181 ) ;
#199 = CARTESIAN_POINT ( 'NONE',  ( 0.000000000000000000, 0.000000000000000000, 100.0000000000000000 ) ) ;
#200 = CC_DESIGN_PERSON_AND_ORGANIZATION_ASSIGNMENT ( #66, #120, ( #114 ) ) ;
#201 = DIRECTION ( 'NONE',  ( 0.000000000000000000, 0.000000000000000000, 1.000000000000000000 ) ) ;
#202 = ORIENTED_EDGE ( 'NONE', *, *, #78, .F. ) ;
#203 = EDGE_CURVE ( 'NONE', #79, #192, #38, .T. ) ;
#204 = EDGE_LOOP ( 'NONE', ( #236, #4, #144, #117 ) ) ;
#205 = APPROVAL_DATE_TIME ( #101, #151 ) ;
#206 = ORIENTED_EDGE ( 'NONE', *, *, #184, .F. ) ;
#207 = PRODUCT_DEFINITION_SHAPE ( 'NONE', 'NONE',  #108 ) ;
#208 = CARTESIAN_POINT ( 'NONE',  ( -8.000000000000000000, 0.000000000000000000, 0.000000000000000000 ) ) ;
#209 = FACE_OUTER_BOUND ( 'NONE', #8, .T. ) ;
#210 = PRODUCT_RELATED_PRODUCT_CATEGORY ( 'detail', '', ( #61 ) ) ;
#211 = PLANE ( 'NONE',  #53 ) ;
#212 = CARTESIAN_POINT ( 'NONE',  ( -8.000000000000000000, 0.000000000000000000, 5.000000000000000000 ) ) ;
#213 = CARTESIAN_POINT ( 'NONE',  ( 0.000000000000000000, 0.000000000000000000, 0.000000000000000000 ) ) ;
#214 = PERSON_AND_ORGANIZATION ( #149, #131 ) ;
#215 = DIRECTION ( 'NONE',  ( -1.000000000000000000, 0.000000000000000000, 0.000000000000000000 ) ) ;
#216 = EDGE_CURVE ( 'NONE', #81, #148, #220, .T. ) ;
#217 = CARTESIAN_POINT ( 'NONE',  ( 0.000000000000000000, 0.000000000000000000, 5.000000000000000000 ) ) ;
#218 = APPROVAL_PERSON_ORGANIZATION ( #214, #232, #154 ) ;
#219 = ADVANCED_FACE ( 'NONE', ( #134 ), #62, .T. ) ;
#220 = LINE ( 'NONE', #75, #172 ) ;
#221 = ORIENTED_EDGE ( 'NONE', *, *, #77, .F. ) ;
#222 = EDGE_CURVE ( 'NONE', #81, #79, #12, .T. ) ;
#223 = FACE_OUTER_BOUND ( 'NONE', #188, .T. ) ;
#224 = SECURITY_CLASSIFICATION_LEVEL ( 'unclassified' ) ;
#225 = ORIENTED_EDGE ( 'NONE', *, *, #160, .T. ) ;
#226 = DIRECTION ( 'NONE',  ( 0.000000000000000000, 0.000000000000000000, 1.000000000000000000 ) ) ;
#227 = DIRECTION ( 'NONE',  ( -0.000000000000000000, -0.000000000000000000, -1.000000000000000000 ) ) ;
#228 = CYLINDRICAL_SURFACE ( 'NONE', #159, 8.000000000000000000 ) ;
#229 = CIRCLE ( 'NONE', #137, 5.500000000000000000 ) ;
#230 = CALENDAR_DATE ( 2023, 13, 2 ) ;
#231 = PRODUCT_DEFINITION_FORMATION_WITH_SPECIFIED_SOURCE ( 'LIBOVOLNÝ', '', #61, .NOT_KNOWN. ) ;
#232 = APPROVAL ( #93, 'NEURÈENÝ' ) ;
#233 = DATE_TIME_ROLE ( 'creation_date' ) ;
#234 = CARTESIAN_POINT ( 'NONE',  ( 5.500000000000000000, 6.735557395310442023E-16, 100.0000000000000000 ) ) ;
#235 = VERTEX_POINT ( 'NONE', #58 ) ;
#236 = ORIENTED_EDGE ( 'NONE', *, *, #203, .F. ) ;
#237 = CARTESIAN_POINT ( 'NONE',  ( 0.000000000000000000, 0.000000000000000000, 0.000000000000000000 ) ) ;
#238 = VERTEX_POINT ( 'NONE', #234 ) ;
#239 = CC_DESIGN_APPROVAL ( #169, ( #231 ) ) ;
#240 = EDGE_CURVE ( 'NONE', #193, #238, #22, .T. ) ;
#241 = COORDINATED_UNIVERSAL_TIME_OFFSET ( 1, 0, .AHEAD. ) ;
#242 = ORIENTED_EDGE ( 'NONE', *, *, #78, .T. ) ;
#243 = PERSON_AND_ORGANIZATION ( #149, #131 ) ;
#244 = ORIENTED_EDGE ( 'NONE', *, *, #160, .F. ) ;
#245 = DIRECTION ( 'NONE',  ( 1.000000000000000000, 0.000000000000000000, 0.000000000000000000 ) ) ;
#246 = APPROVAL_PERSON_ORGANIZATION ( #243, #151, #164 ) ;
#247 = DIRECTION ( 'NONE',  ( -0.000000000000000000, -0.000000000000000000, -1.000000000000000000 ) ) ;
#248 = EDGE_CURVE ( 'NONE', #148, #192, #48, .T. ) ;
#249 = PERSON_AND_ORGANIZATION ( #149, #131 ) ;
#250 = DIRECTION ( 'NONE',  ( -0.000000000000000000, -0.000000000000000000, -1.000000000000000000 ) ) ;
#251 = ORIENTED_EDGE ( 'NONE', *, *, #248, .F. ) ;
#252 = FACE_OUTER_BOUND ( 'NONE', #204, .T. ) ;
#253 = DIRECTION ( 'NONE',  ( -0.000000000000000000, -0.000000000000000000, -1.000000000000000000 ) ) ;
#254 = COORDINATED_UNIVERSAL_TIME_OFFSET ( 1, 0, .AHEAD. ) ;
#255 = CC_DESIGN_DATE_AND_TIME_ASSIGNMENT ( #118, #27, ( #114 ) ) ;
ENDSEC;
END-ISO-10303-21;
