ISO-10303-21;
HEADER;
FILE_DESCRIPTION (( 'STEP AP203' ),
    '1' );
FILE_NAME ('cbe1.STEP',
    '2023-02-13T10:20:56',
    ( '' ),
    ( '' ),
    'SwSTEP 2.0',
    'SolidWorks 2019',
    '' );
FILE_SCHEMA (( 'CONFIG_CONTROL_DESIGN' ));
ENDSEC;

DATA;
#1 = EDGE_LOOP ( 'NONE', ( #40, #144, #129, #186 ) ) ;
#2 = CC_DESIGN_SECURITY_CLASSIFICATION ( #12, ( #31 ) ) ;
#3 = CARTESIAN_POINT ( 'NONE',  ( 0.000000000000000000, 0.000000000000000000, 0.000000000000000000 ) ) ;
#4 = CALENDAR_DATE ( 2023, 13, 2 ) ;
#5 = CARTESIAN_POINT ( 'NONE',  ( 0.000000000000000000, 0.000000000000000000, 0.000000000000000000 ) ) ;
#6 = CIRCLE ( 'NONE', #98, 10.00000000000000000 ) ;
#7 =( LENGTH_UNIT ( ) NAMED_UNIT ( * ) SI_UNIT ( .MILLI., .METRE. ) );
#8 = EDGE_CURVE ( 'NONE', #253, #38, #60, .T. ) ;
#9 = DIRECTION ( 'NONE',  ( -1.000000000000000000, 0.000000000000000000, 0.000000000000000000 ) ) ;
#10 = CARTESIAN_POINT ( 'NONE',  ( 0.000000000000000000, 0.000000000000000000, 100.0000000000000000 ) ) ;
#11 = CARTESIAN_POINT ( 'NONE',  ( 6.000000000000000888, 7.347880794884119736E-16, 100.0000000000000000 ) ) ;
#12 = SECURITY_CLASSIFICATION ( '', '', #78 ) ;
#13 = EDGE_CURVE ( 'NONE', #146, #192, #51, .T. ) ;
#14 = DIRECTION ( 'NONE',  ( 1.000000000000000000, 0.000000000000000000, 0.000000000000000000 ) ) ;
#15 = DIRECTION ( 'NONE',  ( 0.000000000000000000, 0.000000000000000000, 1.000000000000000000 ) ) ;
#16 = CC_DESIGN_PERSON_AND_ORGANIZATION_ASSIGNMENT ( #36, #126, ( #12 ) ) ;
#17 = VERTEX_POINT ( 'NONE', #113 ) ;
#18 = ORIENTED_EDGE ( 'NONE', *, *, #118, .F. ) ;
#19 = ORIENTED_EDGE ( 'NONE', *, *, #118, .T. ) ;
#20 = ORIENTED_EDGE ( 'NONE', *, *, #22, .F. ) ;
#21 = VECTOR ( 'NONE', #190, 1000.000000000000000 ) ;
#22 = EDGE_CURVE ( 'NONE', #184, #125, #210, .T. ) ;
#23 = APPROVAL_PERSON_ORGANIZATION ( #145, #30, #147 ) ;
#24 = CARTESIAN_POINT ( 'NONE',  ( 0.000000000000000000, 0.000000000000000000, 0.000000000000000000 ) ) ;
#25 = DIRECTION ( 'NONE',  ( 0.000000000000000000, 0.000000000000000000, 1.000000000000000000 ) ) ;
#26 = PERSON_AND_ORGANIZATION ( #73, #79 ) ;
#27 = CC_DESIGN_APPROVAL ( #114, ( #202 ) ) ;
#28 = CYLINDRICAL_SURFACE ( 'NONE', #112, 6.000000000000000888 ) ;
#29 = CARTESIAN_POINT ( 'NONE',  ( 0.000000000000000000, 0.000000000000000000, 7.000000000000000000 ) ) ;
#30 = APPROVAL ( #252, 'NEURÈENÝ' ) ;
#31 = PRODUCT_DEFINITION_FORMATION_WITH_SPECIFIED_SOURCE ( 'LIBOVOLNÝ', '', #167, .NOT_KNOWN. ) ;
#32 = DIRECTION ( 'NONE',  ( 1.000000000000000000, 0.000000000000000000, -0.000000000000000000 ) ) ;
#33 = APPROVAL_DATE_TIME ( #181, #59 ) ;
#34 = AXIS2_PLACEMENT_3D ( 'NONE', #5, #25, #92 ) ;
#35 = ORIENTED_EDGE ( 'NONE', *, *, #13, .T. ) ;
#36 = PERSON_AND_ORGANIZATION ( #73, #79 ) ;
#37 = ORIENTED_EDGE ( 'NONE', *, *, #75, .F. ) ;
#38 = VERTEX_POINT ( 'NONE', #152 ) ;
#39 = LOCAL_TIME ( 11, 20, 56.00000000000000000, #67 ) ;
#40 = ORIENTED_EDGE ( 'NONE', *, *, #13, .F. ) ;
#41 = FACE_OUTER_BOUND ( 'NONE', #83, .T. ) ;
#42 = ORIENTED_EDGE ( 'NONE', *, *, #22, .T. ) ;
#43 = AXIS2_PLACEMENT_3D ( 'NONE', #216, #15, #196 ) ;
#44 = DIRECTION ( 'NONE',  ( 0.000000000000000000, 0.000000000000000000, 1.000000000000000000 ) ) ;
#45 = DIRECTION ( 'NONE',  ( -0.000000000000000000, -0.000000000000000000, -1.000000000000000000 ) ) ;
#46 = PERSON_AND_ORGANIZATION ( #73, #79 ) ;
#47 = EDGE_CURVE ( 'NONE', #125, #38, #193, .T. ) ;
#48 = FACE_OUTER_BOUND ( 'NONE', #223, .T. ) ;
#49 = CARTESIAN_POINT ( 'NONE',  ( 0.000000000000000000, 0.000000000000000000, 7.000000000000000000 ) ) ;
#50 = ADVANCED_FACE ( 'NONE', ( #48 ), #89, .T. ) ;
#51 = CIRCLE ( 'NONE', #224, 6.000000000000000888 ) ;
#52 = DIRECTION ( 'NONE',  ( -0.000000000000000000, -0.000000000000000000, -1.000000000000000000 ) ) ;
#53 = SHAPE_DEFINITION_REPRESENTATION ( #88, #77 ) ;
#54 = ORIENTED_EDGE ( 'NONE', *, *, #173, .F. ) ;
#55 = ADVANCED_FACE ( 'NONE', ( #41 ), #188, .T. ) ;
#56 = APPLICATION_CONTEXT ( 'configuration controlled 3d designs of mechanical parts and assemblies' ) ;
#57 = ORIENTED_EDGE ( 'NONE', *, *, #207, .F. ) ;
#58 =( GEOMETRIC_REPRESENTATION_CONTEXT ( 3 ) GLOBAL_UNCERTAINTY_ASSIGNED_CONTEXT ( ( #63 ) ) GLOBAL_UNIT_ASSIGNED_CONTEXT ( ( #7, #91, #239 ) ) REPRESENTATION_CONTEXT ( 'NONE', 'WORKASPACE' ) );
#59 = APPROVAL ( #139, 'NEURÈENÝ' ) ;
#60 = LINE ( 'NONE', #170, #151 ) ;
#61 = APPROVAL_ROLE ( '' ) ;
#62 = CYLINDRICAL_SURFACE ( 'NONE', #250, 10.00000000000000000 ) ;
#63 = UNCERTAINTY_MEASURE_WITH_UNIT (LENGTH_MEASURE( 1.000000000000000082E-05 ), #7, 'distance_accuracy_value', 'NONE');
#64 = VECTOR ( 'NONE', #52, 1000.000000000000000 ) ;
#65 = APPROVAL_DATE_TIME ( #155, #114 ) ;
#66 = DIRECTION ( 'NONE',  ( 0.000000000000000000, 0.000000000000000000, 1.000000000000000000 ) ) ;
#67 = COORDINATED_UNIVERSAL_TIME_OFFSET ( 1, 0, .AHEAD. ) ;
#68 = CIRCLE ( 'NONE', #43, 6.000000000000000888 ) ;
#69 = ADVANCED_FACE ( 'NONE', ( #133 ), #28, .T. ) ;
#70 = CIRCLE ( 'NONE', #191, 10.00000000000000000 ) ;
#71 = PLANE ( 'NONE',  #132 ) ;
#72 = FACE_OUTER_BOUND ( 'NONE', #127, .T. ) ;
#73 = PERSON ( 'NEURÈENÝ', 'NEURÈENÝ', 'NEURÈENÝ', ('NEURÈENÝ'), ('NEURÈENÝ'), ('NEURÈENÝ') ) ;
#74 = LOCAL_TIME ( 11, 20, 56.00000000000000000, #178 ) ;
#75 = EDGE_CURVE ( 'NONE', #253, #184, #6, .T. ) ;
#76 = PERSON_AND_ORGANIZATION_ROLE ( 'design_supplier' ) ;
#77 = ADVANCED_BREP_SHAPE_REPRESENTATION ( 'cbe1', ( #215, #187 ), #58 ) ;
#78 = SECURITY_CLASSIFICATION_LEVEL ( 'unclassified' ) ;
#79 = ORGANIZATION ( 'NEURÈENÝ', 'NEURÈENÝ', '' ) ;
#80 = PERSON_AND_ORGANIZATION ( #73, #79 ) ;
#81 = ORIENTED_EDGE ( 'NONE', *, *, #75, .T. ) ;
#82 = CALENDAR_DATE ( 2023, 13, 2 ) ;
#83 = EDGE_LOOP ( 'NONE', ( #123, #57, #42, #103 ) ) ;
#84 = EDGE_LOOP ( 'NONE', ( #225, #35 ) ) ;
#85 = CARTESIAN_POINT ( 'NONE',  ( 0.000000000000000000, 0.000000000000000000, 7.000000000000000000 ) ) ;
#86 = PERSON_AND_ORGANIZATION_ROLE ( 'creator' ) ;
#87 = EDGE_LOOP ( 'NONE', ( #37, #198, #19, #20 ) ) ;
#88 = PRODUCT_DEFINITION_SHAPE ( 'NONE', 'NONE',  #202 ) ;
#89 = CYLINDRICAL_SURFACE ( 'NONE', #209, 6.000000000000000888 ) ;
#90 = AXIS2_PLACEMENT_3D ( 'NONE', #176, #248, #97 ) ;
#91 =( NAMED_UNIT ( * ) PLANE_ANGLE_UNIT ( ) SI_UNIT ( $, .RADIAN. ) );
#92 = DIRECTION ( 'NONE',  ( 1.000000000000000000, 0.000000000000000000, -0.000000000000000000 ) ) ;
#93 = APPLICATION_CONTEXT ( 'configuration controlled 3d designs of mechanical parts and assemblies' ) ;
#94 = CARTESIAN_POINT ( 'NONE',  ( 0.000000000000000000, 0.000000000000000000, 7.000000000000000000 ) ) ;
#95 = PRODUCT_RELATED_PRODUCT_CATEGORY ( 'detail', '', ( #167 ) ) ;
#96 = CARTESIAN_POINT ( 'NONE',  ( 0.000000000000000000, 0.000000000000000000, 100.0000000000000000 ) ) ;
#97 = DIRECTION ( 'NONE',  ( 1.000000000000000000, 0.000000000000000000, 0.000000000000000000 ) ) ;
#98 = AXIS2_PLACEMENT_3D ( 'NONE', #94, #115, #109 ) ;
#99 = DATE_TIME_ROLE ( 'classification_date' ) ;
#100 = ORIENTED_EDGE ( 'NONE', *, *, #212, .T. ) ;
#101 = EDGE_LOOP ( 'NONE', ( #182, #18 ) ) ;
#102 = ORIENTED_EDGE ( 'NONE', *, *, #162, .F. ) ;
#103 = ORIENTED_EDGE ( 'NONE', *, *, #47, .T. ) ;
#104 = APPLICATION_PROTOCOL_DEFINITION ( 'international standard', 'config_control_design', 1994, #56 ) ;
#105 = DIRECTION ( 'NONE',  ( -1.000000000000000000, 0.000000000000000000, 0.000000000000000000 ) ) ;
#106 = CIRCLE ( 'NONE', #90, 6.000000000000000888 ) ;
#107 = DESIGN_CONTEXT ( 'detailed design', #56, 'design' ) ;
#108 = PERSON_AND_ORGANIZATION_ROLE ( 'design_owner' ) ;
#109 = DIRECTION ( 'NONE',  ( 1.000000000000000000, 0.000000000000000000, 0.000000000000000000 ) ) ;
#110 = ADVANCED_FACE ( 'NONE', ( #157 ), #189, .F. ) ;
#111 = DIRECTION ( 'NONE',  ( 1.000000000000000000, 0.000000000000000000, 0.000000000000000000 ) ) ;
#112 = AXIS2_PLACEMENT_3D ( 'NONE', #206, #131, #171 ) ;
#113 = CARTESIAN_POINT ( 'NONE',  ( 6.000000000000000888, 7.347880794884119736E-16, 7.000000000000000000 ) ) ;
#114 = APPROVAL ( #168, 'NEURÈENÝ' ) ;
#115 = DIRECTION ( 'NONE',  ( 0.000000000000000000, 0.000000000000000000, 1.000000000000000000 ) ) ;
#116 = APPROVAL_PERSON_ORGANIZATION ( #160, #59, #218 ) ;
#117 = FACE_OUTER_BOUND ( 'NONE', #84, .T. ) ;
#118 = EDGE_CURVE ( 'NONE', #38, #125, #164, .T. ) ;
#119 = DIRECTION ( 'NONE',  ( -0.000000000000000000, -0.000000000000000000, -1.000000000000000000 ) ) ;
#120 = AXIS2_PLACEMENT_3D ( 'NONE', #242, #153, #228 ) ;
#121 = AXIS2_PLACEMENT_3D ( 'NONE', #3, #66, #156 ) ;
#122 = APPROVAL_DATE_TIME ( #219, #30 ) ;
#123 = ORIENTED_EDGE ( 'NONE', *, *, #8, .F. ) ;
#124 = CALENDAR_DATE ( 2023, 13, 2 ) ;
#125 = VERTEX_POINT ( 'NONE', #174 ) ;
#126 = PERSON_AND_ORGANIZATION_ROLE ( 'classification_officer' ) ;
#127 = EDGE_LOOP ( 'NONE', ( #220, #81 ) ) ;
#128 = CC_DESIGN_PERSON_AND_ORGANIZATION_ASSIGNMENT ( #26, #108, ( #167 ) ) ;
#129 = ORIENTED_EDGE ( 'NONE', *, *, #246, .T. ) ;
#130 = CC_DESIGN_PERSON_AND_ORGANIZATION_ASSIGNMENT ( #233, #86, ( #202 ) ) ;
#131 = DIRECTION ( 'NONE',  ( -0.000000000000000000, -0.000000000000000000, -1.000000000000000000 ) ) ;
#132 = AXIS2_PLACEMENT_3D ( 'NONE', #96, #161, #197 ) ;
#133 = FACE_OUTER_BOUND ( 'NONE', #1, .T. ) ;
#134 = CALENDAR_DATE ( 2023, 13, 2 ) ;
#135 = DIRECTION ( 'NONE',  ( -0.000000000000000000, -0.000000000000000000, -1.000000000000000000 ) ) ;
#136 = CARTESIAN_POINT ( 'NONE',  ( 0.000000000000000000, 0.000000000000000000, 7.000000000000000000 ) ) ;
#137 = DIRECTION ( 'NONE',  ( 0.000000000000000000, 0.000000000000000000, 1.000000000000000000 ) ) ;
#138 = CARTESIAN_POINT ( 'NONE',  ( 6.000000000000000888, 7.347880794884119736E-16, 100.0000000000000000 ) ) ;
#139 = APPROVAL_STATUS ( 'not_yet_approved' ) ;
#140 = LINE ( 'NONE', #11, #221 ) ;
#141 = ADVANCED_FACE ( 'NONE', ( #245 ), #62, .T. ) ;
#142 = ORIENTED_EDGE ( 'NONE', *, *, #246, .F. ) ;
#143 = LOCAL_TIME ( 11, 20, 56.00000000000000000, #169 ) ;
#144 = ORIENTED_EDGE ( 'NONE', *, *, #173, .T. ) ;
#145 = PERSON_AND_ORGANIZATION ( #73, #79 ) ;
#146 = VERTEX_POINT ( 'NONE', #138 ) ;
#147 = APPROVAL_ROLE ( '' ) ;
#148 = CC_DESIGN_DATE_AND_TIME_ASSIGNMENT ( #241, #208, ( #202 ) ) ;
#149 = CARTESIAN_POINT ( 'NONE',  ( 0.000000000000000000, 0.000000000000000000, 7.000000000000000000 ) ) ;
#150 = CARTESIAN_POINT ( 'NONE',  ( -10.00000000000000000, 0.000000000000000000, 7.000000000000000000 ) ) ;
#151 = VECTOR ( 'NONE', #135, 1000.000000000000000 ) ;
#152 = CARTESIAN_POINT ( 'NONE',  ( 10.00000000000000000, 1.224646799147353256E-15, 0.000000000000000000 ) ) ;
#153 = DIRECTION ( 'NONE',  ( 0.000000000000000000, 0.000000000000000000, 1.000000000000000000 ) ) ;
#154 = AXIS2_PLACEMENT_3D ( 'NONE', #49, #137, #32 ) ;
#155 = DATE_AND_TIME ( #4, #39 ) ;
#156 = DIRECTION ( 'NONE',  ( 1.000000000000000000, 0.000000000000000000, 0.000000000000000000 ) ) ;
#157 = FACE_OUTER_BOUND ( 'NONE', #101, .T. ) ;
#158 = FACE_BOUND ( 'NONE', #203, .T. ) ;
#159 = DIRECTION ( 'NONE',  ( 0.000000000000000000, 0.000000000000000000, 1.000000000000000000 ) ) ;
#160 = PERSON_AND_ORGANIZATION ( #73, #79 ) ;
#161 = DIRECTION ( 'NONE',  ( 0.000000000000000000, 0.000000000000000000, 1.000000000000000000 ) ) ;
#162 = EDGE_CURVE ( 'NONE', #192, #146, #68, .T. ) ;
#163 = COORDINATED_UNIVERSAL_TIME_OFFSET ( 1, 0, .AHEAD. ) ;
#164 = CIRCLE ( 'NONE', #121, 10.00000000000000000 ) ;
#165 = CARTESIAN_POINT ( 'NONE',  ( 10.00000000000000000, 1.224646799147353256E-15, 7.000000000000000000 ) ) ;
#166 = ORIENTED_EDGE ( 'NONE', *, *, #212, .F. ) ;
#167 = PRODUCT ( 'cbe1', 'cbe1', '', ( #204 ) ) ;
#168 = APPROVAL_STATUS ( 'not_yet_approved' ) ;
#169 = COORDINATED_UNIVERSAL_TIME_OFFSET ( 1, 0, .AHEAD. ) ;
#170 = CARTESIAN_POINT ( 'NONE',  ( 10.00000000000000000, 1.224646799147353256E-15, 7.000000000000000000 ) ) ;
#171 = DIRECTION ( 'NONE',  ( -1.000000000000000000, 0.000000000000000000, 0.000000000000000000 ) ) ;
#172 = DIRECTION ( 'NONE',  ( 1.000000000000000000, 0.000000000000000000, 0.000000000000000000 ) ) ;
#173 = EDGE_CURVE ( 'NONE', #146, #17, #140, .T. ) ;
#174 = CARTESIAN_POINT ( 'NONE',  ( -10.00000000000000000, 0.000000000000000000, 0.000000000000000000 ) ) ;
#175 = CC_DESIGN_APPROVAL ( #30, ( #12 ) ) ;
#176 = CARTESIAN_POINT ( 'NONE',  ( 0.000000000000000000, 0.000000000000000000, 7.000000000000000000 ) ) ;
#177 = LINE ( 'NONE', #238, #64 ) ;
#178 = COORDINATED_UNIVERSAL_TIME_OFFSET ( 1, 0, .AHEAD. ) ;
#179 = CARTESIAN_POINT ( 'NONE',  ( -10.00000000000000000, 0.000000000000000000, 7.000000000000000000 ) ) ;
#180 = LOCAL_TIME ( 11, 20, 56.00000000000000000, #163 ) ;
#181 = DATE_AND_TIME ( #249, #74 ) ;
#182 = ORIENTED_EDGE ( 'NONE', *, *, #47, .F. ) ;
#183 = CC_DESIGN_PERSON_AND_ORGANIZATION_ASSIGNMENT ( #255, #185, ( #31 ) ) ;
#184 = VERTEX_POINT ( 'NONE', #179 ) ;
#185 = PERSON_AND_ORGANIZATION_ROLE ( 'creator' ) ;
#186 = ORIENTED_EDGE ( 'NONE', *, *, #226, .F. ) ;
#187 = AXIS2_PLACEMENT_3D ( 'NONE', #24, #44, #172 ) ;
#188 = CYLINDRICAL_SURFACE ( 'NONE', #237, 10.00000000000000000 ) ;
#189 = PLANE ( 'NONE',  #34 ) ;
#190 = DIRECTION ( 'NONE',  ( -0.000000000000000000, -0.000000000000000000, -1.000000000000000000 ) ) ;
#191 = AXIS2_PLACEMENT_3D ( 'NONE', #29, #159, #14 ) ;
#192 = VERTEX_POINT ( 'NONE', #214 ) ;
#193 = CIRCLE ( 'NONE', #120, 10.00000000000000000 ) ;
#194 = ADVANCED_FACE ( 'NONE', ( #158, #72 ), #236, .T. ) ;
#195 = CIRCLE ( 'NONE', #217, 6.000000000000000888 ) ;
#196 = DIRECTION ( 'NONE',  ( 1.000000000000000000, 0.000000000000000000, 0.000000000000000000 ) ) ;
#197 = DIRECTION ( 'NONE',  ( 1.000000000000000000, 0.000000000000000000, -0.000000000000000000 ) ) ;
#198 = ORIENTED_EDGE ( 'NONE', *, *, #8, .T. ) ;
#199 = ADVANCED_FACE ( 'NONE', ( #117 ), #71, .T. ) ;
#200 = DATE_AND_TIME ( #124, #243 ) ;
#201 = VERTEX_POINT ( 'NONE', #213 ) ;
#202 = PRODUCT_DEFINITION ( 'NEZNÁMÝ', '', #31, #107 ) ;
#203 = EDGE_LOOP ( 'NONE', ( #166, #142 ) ) ;
#204 = MECHANICAL_CONTEXT ( 'NONE', #93, 'mechanical' ) ;
#205 = CARTESIAN_POINT ( 'NONE',  ( 0.000000000000000000, 0.000000000000000000, 100.0000000000000000 ) ) ;
#206 = CARTESIAN_POINT ( 'NONE',  ( 0.000000000000000000, 0.000000000000000000, 100.0000000000000000 ) ) ;
#207 = EDGE_CURVE ( 'NONE', #184, #253, #70, .T. ) ;
#208 = DATE_TIME_ROLE ( 'creation_date' ) ;
#209 = AXIS2_PLACEMENT_3D ( 'NONE', #10, #232, #9 ) ;
#210 = LINE ( 'NONE', #150, #21 ) ;
#211 = ORIENTED_EDGE ( 'NONE', *, *, #226, .T. ) ;
#212 = EDGE_CURVE ( 'NONE', #201, #17, #106, .T. ) ;
#213 = CARTESIAN_POINT ( 'NONE',  ( -6.000000000000000888, 0.000000000000000000, 7.000000000000000000 ) ) ;
#214 = CARTESIAN_POINT ( 'NONE',  ( -6.000000000000000888, 0.000000000000000000, 100.0000000000000000 ) ) ;
#215 = MANIFOLD_SOLID_BREP ( 'Pøidat vysunutím3', #240 ) ;
#216 = CARTESIAN_POINT ( 'NONE',  ( 0.000000000000000000, 0.000000000000000000, 100.0000000000000000 ) ) ;
#217 = AXIS2_PLACEMENT_3D ( 'NONE', #149, #227, #234 ) ;
#218 = APPROVAL_ROLE ( '' ) ;
#219 = DATE_AND_TIME ( #82, #180 ) ;
#220 = ORIENTED_EDGE ( 'NONE', *, *, #207, .T. ) ;
#221 = VECTOR ( 'NONE', #119, 1000.000000000000000 ) ;
#222 = COORDINATED_UNIVERSAL_TIME_OFFSET ( 1, 0, .AHEAD. ) ;
#223 = EDGE_LOOP ( 'NONE', ( #54, #102, #211, #100 ) ) ;
#224 = AXIS2_PLACEMENT_3D ( 'NONE', #205, #235, #111 ) ;
#225 = ORIENTED_EDGE ( 'NONE', *, *, #162, .T. ) ;
#226 = EDGE_CURVE ( 'NONE', #192, #201, #177, .T. ) ;
#227 = DIRECTION ( 'NONE',  ( 0.000000000000000000, 0.000000000000000000, 1.000000000000000000 ) ) ;
#228 = DIRECTION ( 'NONE',  ( 1.000000000000000000, 0.000000000000000000, 0.000000000000000000 ) ) ;
#229 = DIRECTION ( 'NONE',  ( -0.000000000000000000, -0.000000000000000000, -1.000000000000000000 ) ) ;
#230 = APPROVAL_PERSON_ORGANIZATION ( #46, #114, #61 ) ;
#231 = CC_DESIGN_PERSON_AND_ORGANIZATION_ASSIGNMENT ( #80, #76, ( #31 ) ) ;
#232 = DIRECTION ( 'NONE',  ( -0.000000000000000000, -0.000000000000000000, -1.000000000000000000 ) ) ;
#233 = PERSON_AND_ORGANIZATION ( #73, #79 ) ;
#234 = DIRECTION ( 'NONE',  ( 1.000000000000000000, 0.000000000000000000, 0.000000000000000000 ) ) ;
#235 = DIRECTION ( 'NONE',  ( 0.000000000000000000, 0.000000000000000000, 1.000000000000000000 ) ) ;
#236 = PLANE ( 'NONE',  #154 ) ;
#237 = AXIS2_PLACEMENT_3D ( 'NONE', #136, #45, #105 ) ;
#238 = CARTESIAN_POINT ( 'NONE',  ( -6.000000000000000888, 0.000000000000000000, 100.0000000000000000 ) ) ;
#239 =( NAMED_UNIT ( * ) SI_UNIT ( $, .STERADIAN. ) SOLID_ANGLE_UNIT ( ) );
#240 = CLOSED_SHELL ( 'NONE', ( #69, #141, #55, #194, #110, #50, #199 ) ) ;
#241 = DATE_AND_TIME ( #134, #143 ) ;
#242 = CARTESIAN_POINT ( 'NONE',  ( 0.000000000000000000, 0.000000000000000000, 0.000000000000000000 ) ) ;
#243 = LOCAL_TIME ( 11, 20, 56.00000000000000000, #222 ) ;
#244 = APPLICATION_PROTOCOL_DEFINITION ( 'international standard', 'config_control_design', 1994, #93 ) ;
#245 = FACE_OUTER_BOUND ( 'NONE', #87, .T. ) ;
#246 = EDGE_CURVE ( 'NONE', #17, #201, #195, .T. ) ;
#247 = DIRECTION ( 'NONE',  ( -1.000000000000000000, 0.000000000000000000, 0.000000000000000000 ) ) ;
#248 = DIRECTION ( 'NONE',  ( 0.000000000000000000, 0.000000000000000000, 1.000000000000000000 ) ) ;
#249 = CALENDAR_DATE ( 2023, 13, 2 ) ;
#250 = AXIS2_PLACEMENT_3D ( 'NONE', #85, #229, #247 ) ;
#251 = CC_DESIGN_DATE_AND_TIME_ASSIGNMENT ( #200, #99, ( #12 ) ) ;
#252 = APPROVAL_STATUS ( 'not_yet_approved' ) ;
#253 = VERTEX_POINT ( 'NONE', #165 ) ;
#254 = CC_DESIGN_APPROVAL ( #59, ( #31 ) ) ;
#255 = PERSON_AND_ORGANIZATION ( #73, #79 ) ;
ENDSEC;
END-ISO-10303-21;
