ISO-10303-21;
HEADER;
FILE_DESCRIPTION (( 'STEP AP203' ),
    '1' );
FILE_NAME ('efaf.STEP',
    '2023-01-31T14:49:53',
    ( '' ),
    ( '' ),
    'SwSTEP 2.0',
    'SolidWorks 2019',
    '' );
FILE_SCHEMA (( 'CONFIG_CONTROL_DESIGN' ));
ENDSEC;

DATA;
#1 = ORIENTED_EDGE ( 'NONE', *, *, #53, .T. ) ;
#2 = VERTEX_POINT ( 'NONE', #82 ) ;
#3 = FACE_OUTER_BOUND ( 'NONE', #218, .T. ) ;
#4 = EDGE_LOOP ( 'NONE', ( #98, #255 ) ) ;
#5 = DIRECTION ( 'NONE',  ( 1.000000000000000000, 0.000000000000000000, 0.000000000000000000 ) ) ;
#6 = CARTESIAN_POINT ( 'NONE',  ( 0.000000000000000000, 0.000000000000000000, 0.000000000000000000 ) ) ;
#7 = EDGE_CURVE ( 'NONE', #22, #24, #184, .T. ) ;
#8 =( GEOMETRIC_REPRESENTATION_CONTEXT ( 3 ) GLOBAL_UNCERTAINTY_ASSIGNED_CONTEXT ( ( #26 ) ) GLOBAL_UNIT_ASSIGNED_CONTEXT ( ( #174, #151, #234 ) ) REPRESENTATION_CONTEXT ( 'NONE', 'WORKASPACE' ) );
#9 = CARTESIAN_POINT ( 'NONE',  ( 0.000000000000000000, 0.000000000000000000, 100.0000000000000000 ) ) ;
#10 = MANIFOLD_SOLID_BREP ( 'Pøidat vysunutím3', #204 ) ;
#11 = FACE_OUTER_BOUND ( 'NONE', #4, .T. ) ;
#12 = CC_DESIGN_PERSON_AND_ORGANIZATION_ASSIGNMENT ( #61, #175, ( #126 ) ) ;
#13 = DIRECTION ( 'NONE',  ( 1.000000000000000000, 0.000000000000000000, 0.000000000000000000 ) ) ;
#14 = AXIS2_PLACEMENT_3D ( 'NONE', #244, #183, #103 ) ;
#15 = AXIS2_PLACEMENT_3D ( 'NONE', #6, #30, #250 ) ;
#16 = SECURITY_CLASSIFICATION_LEVEL ( 'unclassified' ) ;
#17 = PERSON_AND_ORGANIZATION ( #73, #158 ) ;
#18 = CC_DESIGN_SECURITY_CLASSIFICATION ( #95, ( #99 ) ) ;
#19 = COORDINATED_UNIVERSAL_TIME_OFFSET ( 1, 0, .AHEAD. ) ;
#20 = PLANE ( 'NONE',  #217 ) ;
#21 = PRODUCT ( 'efaf', 'efaf', '', ( #156 ) ) ;
#22 = VERTEX_POINT ( 'NONE', #100 ) ;
#23 = CARTESIAN_POINT ( 'NONE',  ( 0.000000000000000000, 0.000000000000000000, 100.0000000000000000 ) ) ;
#24 = VERTEX_POINT ( 'NONE', #179 ) ;
#25 = CARTESIAN_POINT ( 'NONE',  ( 0.000000000000000000, 0.000000000000000000, 1.199999999999999956 ) ) ;
#26 = UNCERTAINTY_MEASURE_WITH_UNIT (LENGTH_MEASURE( 1.000000000000000082E-05 ), #174, 'distance_accuracy_value', 'NONE');
#27 = LINE ( 'NONE', #248, #170 ) ;
#28 = DIRECTION ( 'NONE',  ( 0.000000000000000000, 0.000000000000000000, 1.000000000000000000 ) ) ;
#29 = CARTESIAN_POINT ( 'NONE',  ( 0.000000000000000000, 0.000000000000000000, 1.199999999999999956 ) ) ;
#30 = DIRECTION ( 'NONE',  ( 0.000000000000000000, 0.000000000000000000, 1.000000000000000000 ) ) ;
#31 = APPROVAL_ROLE ( '' ) ;
#32 = LOCAL_TIME ( 15, 49, 53.00000000000000000, #19 ) ;
#33 = EDGE_CURVE ( 'NONE', #2, #102, #93, .T. ) ;
#34 = APPROVAL ( #56, 'NEURÈENÝ' ) ;
#35 = CALENDAR_DATE ( 2023, 31, 1 ) ;
#36 = ORIENTED_EDGE ( 'NONE', *, *, #164, .T. ) ;
#37 = PERSON_AND_ORGANIZATION_ROLE ( 'classification_officer' ) ;
#38 = ADVANCED_FACE ( 'NONE', ( #243 ), #225, .T. ) ;
#39 = DATE_AND_TIME ( #251, #89 ) ;
#40 = EDGE_LOOP ( 'NONE', ( #176, #46, #65, #138 ) ) ;
#41 = EDGE_CURVE ( 'NONE', #123, #165, #194, .T. ) ;
#42 = LINE ( 'NONE', #182, #229 ) ;
#43 = APPROVAL_PERSON_ORGANIZATION ( #17, #52, #31 ) ;
#44 = EDGE_LOOP ( 'NONE', ( #57, #45 ) ) ;
#45 = ORIENTED_EDGE ( 'NONE', *, *, #41, .F. ) ;
#46 = ORIENTED_EDGE ( 'NONE', *, *, #149, .T. ) ;
#47 = PLANE ( 'NONE',  #15 ) ;
#48 = APPROVAL_PERSON_ORGANIZATION ( #219, #104, #254 ) ;
#49 = FACE_OUTER_BOUND ( 'NONE', #226, .T. ) ;
#50 = DIRECTION ( 'NONE',  ( 0.000000000000000000, 0.000000000000000000, 1.000000000000000000 ) ) ;
#51 = CARTESIAN_POINT ( 'NONE',  ( 1.250000000000000000, 1.530808498934191571E-16, 1.199999999999999956 ) ) ;
#52 = APPROVAL ( #153, 'NEURÈENÝ' ) ;
#53 = EDGE_CURVE ( 'NONE', #102, #24, #42, .T. ) ;
#54 = PLANE ( 'NONE',  #246 ) ;
#55 = PERSON_AND_ORGANIZATION_ROLE ( 'design_owner' ) ;
#56 = APPROVAL_STATUS ( 'not_yet_approved' ) ;
#57 = ORIENTED_EDGE ( 'NONE', *, *, #169, .F. ) ;
#58 = LOCAL_TIME ( 15, 49, 53.00000000000000000, #97 ) ;
#59 = CALENDAR_DATE ( 2023, 31, 1 ) ;
#60 = APPROVAL_DATE_TIME ( #120, #52 ) ;
#61 = PERSON_AND_ORGANIZATION ( #73, #158 ) ;
#62 = CC_DESIGN_PERSON_AND_ORGANIZATION_ASSIGNMENT ( #154, #134, ( #99 ) ) ;
#63 = ORIENTED_EDGE ( 'NONE', *, *, #142, .T. ) ;
#64 = DIRECTION ( 'NONE',  ( -0.000000000000000000, -0.000000000000000000, -1.000000000000000000 ) ) ;
#65 = ORIENTED_EDGE ( 'NONE', *, *, #41, .T. ) ;
#66 = ORIENTED_EDGE ( 'NONE', *, *, #7, .T. ) ;
#67 = CARTESIAN_POINT ( 'NONE',  ( 1.250000000000000000, 1.530808498934191571E-16, 0.000000000000000000 ) ) ;
#68 = CC_DESIGN_PERSON_AND_ORGANIZATION_ASSIGNMENT ( #241, #221, ( #99 ) ) ;
#69 = FACE_OUTER_BOUND ( 'NONE', #140, .T. ) ;
#70 = LINE ( 'NONE', #150, #145 ) ;
#71 = CARTESIAN_POINT ( 'NONE',  ( 1.250000000000000000, 1.530808498934191571E-16, 1.199999999999999956 ) ) ;
#72 = DIRECTION ( 'NONE',  ( 0.000000000000000000, 0.000000000000000000, 1.000000000000000000 ) ) ;
#73 = PERSON ( 'NEURÈENÝ', 'NEURÈENÝ', 'NEURÈENÝ', ('NEURÈENÝ'), ('NEURÈENÝ'), ('NEURÈENÝ') ) ;
#74 = AXIS2_PLACEMENT_3D ( 'NONE', #131, #119, #135 ) ;
#75 = COORDINATED_UNIVERSAL_TIME_OFFSET ( 1, 0, .AHEAD. ) ;
#76 = DATE_AND_TIME ( #35, #58 ) ;
#77 = EDGE_LOOP ( 'NONE', ( #213, #141 ) ) ;
#78 = AXIS2_PLACEMENT_3D ( 'NONE', #9, #232, #206 ) ;
#79 = DATE_AND_TIME ( #136, #223 ) ;
#80 = ADVANCED_FACE ( 'NONE', ( #198 ), #122, .T. ) ;
#81 = ORIENTED_EDGE ( 'NONE', *, *, #253, .F. ) ;
#82 = CARTESIAN_POINT ( 'NONE',  ( -0.5000000000000000000, 0.000000000000000000, 100.0000000000000000 ) ) ;
#83 = CARTESIAN_POINT ( 'NONE',  ( 0.000000000000000000, 0.000000000000000000, 1.199999999999999956 ) ) ;
#84 = CC_DESIGN_APPROVAL ( #34, ( #99 ) ) ;
#85 = DIRECTION ( 'NONE',  ( 1.000000000000000000, 0.000000000000000000, 0.000000000000000000 ) ) ;
#86 = DIRECTION ( 'NONE',  ( -0.000000000000000000, -0.000000000000000000, -1.000000000000000000 ) ) ;
#87 = CARTESIAN_POINT ( 'NONE',  ( 0.5000000000000000000, 6.123233995736766036E-17, 100.0000000000000000 ) ) ;
#88 = FACE_OUTER_BOUND ( 'NONE', #44, .T. ) ;
#89 = LOCAL_TIME ( 15, 49, 53.00000000000000000, #195 ) ;
#90 = DIRECTION ( 'NONE',  ( 0.000000000000000000, 0.000000000000000000, 1.000000000000000000 ) ) ;
#91 = CARTESIAN_POINT ( 'NONE',  ( 0.000000000000000000, 0.000000000000000000, 1.199999999999999956 ) ) ;
#92 = ADVANCED_FACE ( 'NONE', ( #245, #3 ), #20, .T. ) ;
#93 = CIRCLE ( 'NONE', #214, 0.5000000000000000000 ) ;
#94 = APPROVAL_DATE_TIME ( #237, #104 ) ;
#95 = SECURITY_CLASSIFICATION ( '', '', #16 ) ;
#96 = EDGE_CURVE ( 'NONE', #24, #22, #249, .T. ) ;
#97 = COORDINATED_UNIVERSAL_TIME_OFFSET ( 1, 0, .AHEAD. ) ;
#98 = ORIENTED_EDGE ( 'NONE', *, *, #33, .T. ) ;
#99 = PRODUCT_DEFINITION_FORMATION_WITH_SPECIFIED_SOURCE ( 'LIBOVOLNÝ', '', #21, .NOT_KNOWN. ) ;
#100 = CARTESIAN_POINT ( 'NONE',  ( -0.5000000000000000000, 0.000000000000000000, 1.199999999999999956 ) ) ;
#101 = EDGE_CURVE ( 'NONE', #201, #224, #203, .T. ) ;
#102 = VERTEX_POINT ( 'NONE', #87 ) ;
#103 = DIRECTION ( 'NONE',  ( 1.000000000000000000, 0.000000000000000000, 0.000000000000000000 ) ) ;
#104 = APPROVAL ( #157, 'NEURÈENÝ' ) ;
#105 = CIRCLE ( 'NONE', #137, 0.5000000000000000000 ) ;
#106 = DIRECTION ( 'NONE',  ( 0.000000000000000000, 0.000000000000000000, 1.000000000000000000 ) ) ;
#107 = CARTESIAN_POINT ( 'NONE',  ( 0.000000000000000000, 0.000000000000000000, 100.0000000000000000 ) ) ;
#108 = ADVANCED_FACE ( 'NONE', ( #11 ), #54, .T. ) ;
#109 = CARTESIAN_POINT ( 'NONE',  ( -1.250000000000000000, 0.000000000000000000, 0.000000000000000000 ) ) ;
#110 = CYLINDRICAL_SURFACE ( 'NONE', #155, 1.250000000000000000 ) ;
#111 = CARTESIAN_POINT ( 'NONE',  ( 0.000000000000000000, 0.000000000000000000, 1.199999999999999956 ) ) ;
#112 = CC_DESIGN_DATE_AND_TIME_ASSIGNMENT ( #79, #252, ( #126 ) ) ;
#113 = AXIS2_PLACEMENT_3D ( 'NONE', #83, #64, #162 ) ;
#114 = APPLICATION_PROTOCOL_DEFINITION ( 'international standard', 'config_control_design', 1994, #187 ) ;
#115 = AXIS2_PLACEMENT_3D ( 'NONE', #23, #86, #227 ) ;
#116 = PERSON_AND_ORGANIZATION ( #73, #158 ) ;
#117 = EDGE_CURVE ( 'NONE', #102, #2, #105, .T. ) ;
#118 = ORIENTED_EDGE ( 'NONE', *, *, #53, .F. ) ;
#119 = DIRECTION ( 'NONE',  ( 0.000000000000000000, 0.000000000000000000, 1.000000000000000000 ) ) ;
#120 = DATE_AND_TIME ( #235, #233 ) ;
#121 = ORIENTED_EDGE ( 'NONE', *, *, #253, .T. ) ;
#122 = CYLINDRICAL_SURFACE ( 'NONE', #113, 1.250000000000000000 ) ;
#123 = VERTEX_POINT ( 'NONE', #67 ) ;
#124 = ORIENTED_EDGE ( 'NONE', *, *, #33, .F. ) ;
#125 = PRODUCT_RELATED_PRODUCT_CATEGORY ( 'detail', '', ( #21 ) ) ;
#126 = PRODUCT_DEFINITION ( 'NEZNÁMÝ', '', #99, #168 ) ;
#127 = LINE ( 'NONE', #71, #216 ) ;
#128 = DIRECTION ( 'NONE',  ( -0.000000000000000000, -0.000000000000000000, -1.000000000000000000 ) ) ;
#129 = CARTESIAN_POINT ( 'NONE',  ( -1.250000000000000000, 0.000000000000000000, 1.199999999999999956 ) ) ;
#130 = PRODUCT_DEFINITION_SHAPE ( 'NONE', 'NONE',  #126 ) ;
#131 = CARTESIAN_POINT ( 'NONE',  ( 0.000000000000000000, 0.000000000000000000, 0.000000000000000000 ) ) ;
#132 = ORIENTED_EDGE ( 'NONE', *, *, #149, .F. ) ;
#133 = AXIS2_PLACEMENT_3D ( 'NONE', #161, #106, #181 ) ;
#134 = PERSON_AND_ORGANIZATION_ROLE ( 'creator' ) ;
#135 = DIRECTION ( 'NONE',  ( 1.000000000000000000, 0.000000000000000000, 0.000000000000000000 ) ) ;
#136 = CALENDAR_DATE ( 2023, 31, 1 ) ;
#137 = AXIS2_PLACEMENT_3D ( 'NONE', #107, #167, #171 ) ;
#138 = ORIENTED_EDGE ( 'NONE', *, *, #164, .F. ) ;
#139 = ORIENTED_EDGE ( 'NONE', *, *, #142, .F. ) ;
#140 = EDGE_LOOP ( 'NONE', ( #118, #124, #63, #66 ) ) ;
#141 = ORIENTED_EDGE ( 'NONE', *, *, #96, .F. ) ;
#142 = EDGE_CURVE ( 'NONE', #2, #22, #70, .T. ) ;
#143 = DIRECTION ( 'NONE',  ( -1.000000000000000000, 0.000000000000000000, 0.000000000000000000 ) ) ;
#144 = AXIS2_PLACEMENT_3D ( 'NONE', #91, #28, #5 ) ;
#145 = VECTOR ( 'NONE', #128, 1000.000000000000000 ) ;
#146 = CIRCLE ( 'NONE', #238, 1.250000000000000000 ) ;
#147 = DIRECTION ( 'NONE',  ( 1.000000000000000000, 0.000000000000000000, -0.000000000000000000 ) ) ;
#148 = CARTESIAN_POINT ( 'NONE',  ( 0.000000000000000000, 0.000000000000000000, 100.0000000000000000 ) ) ;
#149 = EDGE_CURVE ( 'NONE', #201, #123, #127, .T. ) ;
#150 = CARTESIAN_POINT ( 'NONE',  ( -0.5000000000000000000, 0.000000000000000000, 100.0000000000000000 ) ) ;
#151 =( NAMED_UNIT ( * ) PLANE_ANGLE_UNIT ( ) SI_UNIT ( $, .RADIAN. ) );
#152 = ADVANCED_FACE ( 'NONE', ( #88 ), #47, .F. ) ;
#153 = APPROVAL_STATUS ( 'not_yet_approved' ) ;
#154 = PERSON_AND_ORGANIZATION ( #73, #158 ) ;
#155 = AXIS2_PLACEMENT_3D ( 'NONE', #25, #230, #143 ) ;
#156 = MECHANICAL_CONTEXT ( 'NONE', #159, 'mechanical' ) ;
#157 = APPROVAL_STATUS ( 'not_yet_approved' ) ;
#158 = ORGANIZATION ( 'NEURÈENÝ', 'NEURÈENÝ', '' ) ;
#159 = APPLICATION_CONTEXT ( 'configuration controlled 3d designs of mechanical parts and assemblies' ) ;
#160 = DIRECTION ( 'NONE',  ( 0.000000000000000000, 0.000000000000000000, 1.000000000000000000 ) ) ;
#161 = CARTESIAN_POINT ( 'NONE',  ( 0.000000000000000000, 0.000000000000000000, 1.199999999999999956 ) ) ;
#162 = DIRECTION ( 'NONE',  ( -1.000000000000000000, 0.000000000000000000, 0.000000000000000000 ) ) ;
#163 = CC_DESIGN_APPROVAL ( #52, ( #95 ) ) ;
#164 = EDGE_CURVE ( 'NONE', #224, #165, #27, .T. ) ;
#165 = VERTEX_POINT ( 'NONE', #109 ) ;
#166 = CARTESIAN_POINT ( 'NONE',  ( 0.000000000000000000, 0.000000000000000000, 100.0000000000000000 ) ) ;
#167 = DIRECTION ( 'NONE',  ( 0.000000000000000000, 0.000000000000000000, 1.000000000000000000 ) ) ;
#168 = DESIGN_CONTEXT ( 'detailed design', #187, 'design' ) ;
#169 = EDGE_CURVE ( 'NONE', #165, #123, #242, .T. ) ;
#170 = VECTOR ( 'NONE', #211, 1000.000000000000000 ) ;
#171 = DIRECTION ( 'NONE',  ( 1.000000000000000000, 0.000000000000000000, 0.000000000000000000 ) ) ;
#172 = DIRECTION ( 'NONE',  ( 1.000000000000000000, 0.000000000000000000, 0.000000000000000000 ) ) ;
#173 = CC_DESIGN_PERSON_AND_ORGANIZATION_ASSIGNMENT ( #178, #55, ( #21 ) ) ;
#174 =( LENGTH_UNIT ( ) NAMED_UNIT ( * ) SI_UNIT ( .MILLI., .METRE. ) );
#175 = PERSON_AND_ORGANIZATION_ROLE ( 'creator' ) ;
#176 = ORIENTED_EDGE ( 'NONE', *, *, #101, .F. ) ;
#177 = DATE_TIME_ROLE ( 'classification_date' ) ;
#178 = PERSON_AND_ORGANIZATION ( #73, #158 ) ;
#179 = CARTESIAN_POINT ( 'NONE',  ( 0.5000000000000000000, 6.123233995736766036E-17, 1.199999999999999956 ) ) ;
#180 = CC_DESIGN_APPROVAL ( #104, ( #126 ) ) ;
#181 = DIRECTION ( 'NONE',  ( 1.000000000000000000, 0.000000000000000000, 0.000000000000000000 ) ) ;
#182 = CARTESIAN_POINT ( 'NONE',  ( 0.5000000000000000000, 6.123233995736766036E-17, 100.0000000000000000 ) ) ;
#183 = DIRECTION ( 'NONE',  ( 0.000000000000000000, 0.000000000000000000, 1.000000000000000000 ) ) ;
#184 = CIRCLE ( 'NONE', #133, 0.5000000000000000000 ) ;
#185 = ORIENTED_EDGE ( 'NONE', *, *, #117, .F. ) ;
#186 = DIRECTION ( 'NONE',  ( 1.000000000000000000, 0.000000000000000000, -0.000000000000000000 ) ) ;
#187 = APPLICATION_CONTEXT ( 'configuration controlled 3d designs of mechanical parts and assemblies' ) ;
#188 = DIRECTION ( 'NONE',  ( -0.000000000000000000, -0.000000000000000000, -1.000000000000000000 ) ) ;
#189 = AXIS2_PLACEMENT_3D ( 'NONE', #231, #193, #172 ) ;
#190 = CYLINDRICAL_SURFACE ( 'NONE', #78, 0.5000000000000000000 ) ;
#191 = ADVANCED_FACE ( 'NONE', ( #69 ), #190, .T. ) ;
#192 = CARTESIAN_POINT ( 'NONE',  ( 0.000000000000000000, 0.000000000000000000, 1.199999999999999956 ) ) ;
#193 = DIRECTION ( 'NONE',  ( 0.000000000000000000, 0.000000000000000000, 1.000000000000000000 ) ) ;
#194 = CIRCLE ( 'NONE', #14, 1.250000000000000000 ) ;
#195 = COORDINATED_UNIVERSAL_TIME_OFFSET ( 1, 0, .AHEAD. ) ;
#196 = ORIENTED_EDGE ( 'NONE', *, *, #101, .T. ) ;
#197 = PERSON_AND_ORGANIZATION ( #73, #158 ) ;
#198 = FACE_OUTER_BOUND ( 'NONE', #40, .T. ) ;
#199 = ORIENTED_EDGE ( 'NONE', *, *, #96, .T. ) ;
#200 = EDGE_LOOP ( 'NONE', ( #185, #1, #199, #139 ) ) ;
#201 = VERTEX_POINT ( 'NONE', #51 ) ;
#202 = ORIENTED_EDGE ( 'NONE', *, *, #169, .T. ) ;
#203 = CIRCLE ( 'NONE', #144, 1.250000000000000000 ) ;
#204 = CLOSED_SHELL ( 'NONE', ( #38, #80, #240, #92, #152, #191, #108 ) ) ;
#205 = APPROVAL_PERSON_ORGANIZATION ( #197, #34, #215 ) ;
#206 = DIRECTION ( 'NONE',  ( -1.000000000000000000, 0.000000000000000000, 0.000000000000000000 ) ) ;
#207 = DIRECTION ( 'NONE',  ( 0.000000000000000000, 0.000000000000000000, 1.000000000000000000 ) ) ;
#208 = ADVANCED_BREP_SHAPE_REPRESENTATION ( 'efaf', ( #10, #74 ), #8 ) ;
#209 = DIRECTION ( 'NONE',  ( 1.000000000000000000, 0.000000000000000000, 0.000000000000000000 ) ) ;
#210 = CC_DESIGN_DATE_AND_TIME_ASSIGNMENT ( #39, #177, ( #95 ) ) ;
#211 = DIRECTION ( 'NONE',  ( -0.000000000000000000, -0.000000000000000000, -1.000000000000000000 ) ) ;
#212 = APPROVAL_DATE_TIME ( #76, #34 ) ;
#213 = ORIENTED_EDGE ( 'NONE', *, *, #7, .F. ) ;
#214 = AXIS2_PLACEMENT_3D ( 'NONE', #166, #160, #85 ) ;
#215 = APPROVAL_ROLE ( '' ) ;
#216 = VECTOR ( 'NONE', #188, 1000.000000000000000 ) ;
#217 = AXIS2_PLACEMENT_3D ( 'NONE', #29, #50, #147 ) ;
#218 = EDGE_LOOP ( 'NONE', ( #121, #196 ) ) ;
#219 = PERSON_AND_ORGANIZATION ( #73, #158 ) ;
#220 = SHAPE_DEFINITION_REPRESENTATION ( #130, #208 ) ;
#221 = PERSON_AND_ORGANIZATION_ROLE ( 'design_supplier' ) ;
#222 = AXIS2_PLACEMENT_3D ( 'NONE', #111, #90, #209 ) ;
#223 = LOCAL_TIME ( 15, 49, 53.00000000000000000, #75 ) ;
#224 = VERTEX_POINT ( 'NONE', #129 ) ;
#225 = CYLINDRICAL_SURFACE ( 'NONE', #115, 0.5000000000000000000 ) ;
#226 = EDGE_LOOP ( 'NONE', ( #132, #81, #36, #202 ) ) ;
#227 = DIRECTION ( 'NONE',  ( -1.000000000000000000, 0.000000000000000000, 0.000000000000000000 ) ) ;
#228 = CC_DESIGN_PERSON_AND_ORGANIZATION_ASSIGNMENT ( #116, #37, ( #95 ) ) ;
#229 = VECTOR ( 'NONE', #247, 1000.000000000000000 ) ;
#230 = DIRECTION ( 'NONE',  ( -0.000000000000000000, -0.000000000000000000, -1.000000000000000000 ) ) ;
#231 = CARTESIAN_POINT ( 'NONE',  ( 0.000000000000000000, 0.000000000000000000, 0.000000000000000000 ) ) ;
#232 = DIRECTION ( 'NONE',  ( -0.000000000000000000, -0.000000000000000000, -1.000000000000000000 ) ) ;
#233 = LOCAL_TIME ( 15, 49, 53.00000000000000000, #239 ) ;
#234 =( NAMED_UNIT ( * ) SI_UNIT ( $, .STERADIAN. ) SOLID_ANGLE_UNIT ( ) );
#235 = CALENDAR_DATE ( 2023, 31, 1 ) ;
#236 = APPLICATION_PROTOCOL_DEFINITION ( 'international standard', 'config_control_design', 1994, #159 ) ;
#237 = DATE_AND_TIME ( #59, #32 ) ;
#238 = AXIS2_PLACEMENT_3D ( 'NONE', #192, #72, #13 ) ;
#239 = COORDINATED_UNIVERSAL_TIME_OFFSET ( 1, 0, .AHEAD. ) ;
#240 = ADVANCED_FACE ( 'NONE', ( #49 ), #110, .T. ) ;
#241 = PERSON_AND_ORGANIZATION ( #73, #158 ) ;
#242 = CIRCLE ( 'NONE', #189, 1.250000000000000000 ) ;
#243 = FACE_OUTER_BOUND ( 'NONE', #200, .T. ) ;
#244 = CARTESIAN_POINT ( 'NONE',  ( 0.000000000000000000, 0.000000000000000000, 0.000000000000000000 ) ) ;
#245 = FACE_BOUND ( 'NONE', #77, .T. ) ;
#246 = AXIS2_PLACEMENT_3D ( 'NONE', #148, #207, #186 ) ;
#247 = DIRECTION ( 'NONE',  ( -0.000000000000000000, -0.000000000000000000, -1.000000000000000000 ) ) ;
#248 = CARTESIAN_POINT ( 'NONE',  ( -1.250000000000000000, 0.000000000000000000, 1.199999999999999956 ) ) ;
#249 = CIRCLE ( 'NONE', #222, 0.5000000000000000000 ) ;
#250 = DIRECTION ( 'NONE',  ( 1.000000000000000000, 0.000000000000000000, -0.000000000000000000 ) ) ;
#251 = CALENDAR_DATE ( 2023, 31, 1 ) ;
#252 = DATE_TIME_ROLE ( 'creation_date' ) ;
#253 = EDGE_CURVE ( 'NONE', #224, #201, #146, .T. ) ;
#254 = APPROVAL_ROLE ( '' ) ;
#255 = ORIENTED_EDGE ( 'NONE', *, *, #117, .T. ) ;
ENDSEC;
END-ISO-10303-21;
