ISO-10303-21;
HEADER;
FILE_DESCRIPTION (( 'STEP AP203' ),
    '1' );
FILE_NAME ('6bf7.STEP',
    '2023-02-13T14:07:16',
    ( '' ),
    ( '' ),
    'SwSTEP 2.0',
    'SolidWorks 2019',
    '' );
FILE_SCHEMA (( 'CONFIG_CONTROL_DESIGN' ));
ENDSEC;

DATA;
#1 = ORIENTED_EDGE ( 'NONE', *, *, #255, .T. ) ;
#2 = LINE ( 'NONE', #53, #221 ) ;
#3 = AXIS2_PLACEMENT_3D ( 'NONE', #184, #132, #43 ) ;
#4 = DIRECTION ( 'NONE',  ( -0.000000000000000000, -0.000000000000000000, -1.000000000000000000 ) ) ;
#5 = CARTESIAN_POINT ( 'NONE',  ( 0.000000000000000000, 0.000000000000000000, 5.000000000000000000 ) ) ;
#6 = DESIGN_CONTEXT ( 'detailed design', #161, 'design' ) ;
#7 = CARTESIAN_POINT ( 'NONE',  ( 0.000000000000000000, 0.000000000000000000, 5.000000000000000000 ) ) ;
#8 = PERSON_AND_ORGANIZATION_ROLE ( 'design_owner' ) ;
#9 = DIRECTION ( 'NONE',  ( -1.000000000000000000, 0.000000000000000000, 0.000000000000000000 ) ) ;
#10 = EDGE_CURVE ( 'NONE', #183, #58, #141, .T. ) ;
#11 = DATE_TIME_ROLE ( 'classification_date' ) ;
#12 = DIRECTION ( 'NONE',  ( 1.000000000000000000, 0.000000000000000000, -0.000000000000000000 ) ) ;
#13 = PERSON_AND_ORGANIZATION ( #163, #92 ) ;
#14 = CARTESIAN_POINT ( 'NONE',  ( 0.000000000000000000, 0.000000000000000000, 250.0000000000000000 ) ) ;
#15 = PERSON_AND_ORGANIZATION_ROLE ( 'design_supplier' ) ;
#16 = APPROVAL ( #90, 'NEURÈENÝ' ) ;
#17 = PLANE ( 'NONE',  #131 ) ;
#18 = APPROVAL ( #95, 'NEURÈENÝ' ) ;
#19 = CARTESIAN_POINT ( 'NONE',  ( 0.000000000000000000, 0.000000000000000000, 250.0000000000000000 ) ) ;
#20 = ORIENTED_EDGE ( 'NONE', *, *, #212, .F. ) ;
#21 = ORIENTED_EDGE ( 'NONE', *, *, #255, .F. ) ;
#22 = CC_DESIGN_PERSON_AND_ORGANIZATION_ASSIGNMENT ( #72, #15, ( #42 ) ) ;
#23 = EDGE_LOOP ( 'NONE', ( #121, #160 ) ) ;
#24 = DIRECTION ( 'NONE',  ( 0.000000000000000000, 0.000000000000000000, 1.000000000000000000 ) ) ;
#25 = AXIS2_PLACEMENT_3D ( 'NONE', #61, #144, #84 ) ;
#26 = AXIS2_PLACEMENT_3D ( 'NONE', #5, #24, #48 ) ;
#27 = AXIS2_PLACEMENT_3D ( 'NONE', #195, #172, #55 ) ;
#28 = CALENDAR_DATE ( 2023, 13, 2 ) ;
#29 = DIRECTION ( 'NONE',  ( 0.000000000000000000, 0.000000000000000000, 1.000000000000000000 ) ) ;
#30 = CALENDAR_DATE ( 2023, 13, 2 ) ;
#31 = MANIFOLD_SOLID_BREP ( 'Pøidat vysunutím3', #140 ) ;
#32 = ADVANCED_FACE ( 'NONE', ( #139, #214 ), #197, .T. ) ;
#33 = CALENDAR_DATE ( 2023, 13, 2 ) ;
#34 = CARTESIAN_POINT ( 'NONE',  ( 0.000000000000000000, 0.000000000000000000, 250.0000000000000000 ) ) ;
#35 = SECURITY_CLASSIFICATION ( '', '', #222 ) ;
#36 = DATE_AND_TIME ( #229, #52 ) ;
#37 = ORIENTED_EDGE ( 'NONE', *, *, #138, .T. ) ;
#38 = APPROVAL_ROLE ( '' ) ;
#39 = APPLICATION_PROTOCOL_DEFINITION ( 'international standard', 'config_control_design', 1994, #77 ) ;
#40 = ORIENTED_EDGE ( 'NONE', *, *, #230, .T. ) ;
#41 = DIRECTION ( 'NONE',  ( 0.000000000000000000, 0.000000000000000000, 1.000000000000000000 ) ) ;
#42 = PRODUCT_DEFINITION_FORMATION_WITH_SPECIFIED_SOURCE ( 'LIBOVOLNÝ', '', #76, .NOT_KNOWN. ) ;
#43 = DIRECTION ( 'NONE',  ( -1.000000000000000000, 0.000000000000000000, 0.000000000000000000 ) ) ;
#44 = PERSON_AND_ORGANIZATION ( #163, #92 ) ;
#45 = VECTOR ( 'NONE', #97, 1000.000000000000000 ) ;
#46 = APPROVAL_PERSON_ORGANIZATION ( #13, #119, #51 ) ;
#47 = COORDINATED_UNIVERSAL_TIME_OFFSET ( 1, 0, .AHEAD. ) ;
#48 = DIRECTION ( 'NONE',  ( 1.000000000000000000, 0.000000000000000000, 0.000000000000000000 ) ) ;
#49 = CC_DESIGN_DATE_AND_TIME_ASSIGNMENT ( #192, #11, ( #35 ) ) ;
#50 = AXIS2_PLACEMENT_3D ( 'NONE', #220, #189, #91 ) ;
#51 = APPROVAL_ROLE ( '' ) ;
#52 = LOCAL_TIME ( 15, 7, 16.00000000000000000, #213 ) ;
#53 = CARTESIAN_POINT ( 'NONE',  ( 3.000000000000000444, 3.673940397442060361E-16, 250.0000000000000000 ) ) ;
#54 = APPROVAL_DATE_TIME ( #36, #18 ) ;
#55 = DIRECTION ( 'NONE',  ( 1.000000000000000000, 0.000000000000000000, 0.000000000000000000 ) ) ;
#56 = APPROVAL_PERSON_ORGANIZATION ( #149, #16, #116 ) ;
#57 = ORIENTED_EDGE ( 'NONE', *, *, #80, .F. ) ;
#58 = VERTEX_POINT ( 'NONE', #216 ) ;
#59 = AXIS2_PLACEMENT_3D ( 'NONE', #134, #236, #12 ) ;
#60 = ORIENTED_EDGE ( 'NONE', *, *, #69, .F. ) ;
#61 = CARTESIAN_POINT ( 'NONE',  ( 0.000000000000000000, 0.000000000000000000, 5.000000000000000000 ) ) ;
#62 = AXIS2_PLACEMENT_3D ( 'NONE', #148, #147, #9 ) ;
#63 = FACE_OUTER_BOUND ( 'NONE', #88, .T. ) ;
#64 = CC_DESIGN_APPROVAL ( #18, ( #35 ) ) ;
#65 = CC_DESIGN_PERSON_AND_ORGANIZATION_ASSIGNMENT ( #44, #8, ( #76 ) ) ;
#66 = LINE ( 'NONE', #165, #219 ) ;
#67 = APPROVAL_STATUS ( 'not_yet_approved' ) ;
#68 = DIRECTION ( 'NONE',  ( 0.000000000000000000, 0.000000000000000000, 1.000000000000000000 ) ) ;
#69 = EDGE_CURVE ( 'NONE', #102, #183, #83, .T. ) ;
#70 = CARTESIAN_POINT ( 'NONE',  ( 3.000000000000000444, 3.673940397442060361E-16, 5.000000000000000000 ) ) ;
#71 = AXIS2_PLACEMENT_3D ( 'NONE', #14, #118, #227 ) ;
#72 = PERSON_AND_ORGANIZATION ( #163, #92 ) ;
#73 = CARTESIAN_POINT ( 'NONE',  ( 0.000000000000000000, 0.000000000000000000, 5.000000000000000000 ) ) ;
#74 = DIRECTION ( 'NONE',  ( 0.000000000000000000, 0.000000000000000000, 1.000000000000000000 ) ) ;
#75 = DIRECTION ( 'NONE',  ( 0.000000000000000000, 0.000000000000000000, 1.000000000000000000 ) ) ;
#76 = PRODUCT ( '6bf7', '6bf7', '', ( #135 ) ) ;
#77 = APPLICATION_CONTEXT ( 'configuration controlled 3d designs of mechanical parts and assemblies' ) ;
#78 = EDGE_CURVE ( 'NONE', #106, #200, #168, .T. ) ;
#79 = ORIENTED_EDGE ( 'NONE', *, *, #241, .F. ) ;
#80 = EDGE_CURVE ( 'NONE', #102, #176, #66, .T. ) ;
#81 = DIRECTION ( 'NONE',  ( 1.000000000000000000, 0.000000000000000000, 0.000000000000000000 ) ) ;
#82 = EDGE_LOOP ( 'NONE', ( #218, #182 ) ) ;
#83 = CIRCLE ( 'NONE', #150, 6.000000000000000888 ) ;
#84 = DIRECTION ( 'NONE',  ( 1.000000000000000000, 0.000000000000000000, -0.000000000000000000 ) ) ;
#85 = CIRCLE ( 'NONE', #226, 3.000000000000000444 ) ;
#86 = LOCAL_TIME ( 15, 7, 16.00000000000000000, #47 ) ;
#87 = ORIENTED_EDGE ( 'NONE', *, *, #78, .T. ) ;
#88 = EDGE_LOOP ( 'NONE', ( #57, #101, #232, #37 ) ) ;
#89 = CIRCLE ( 'NONE', #27, 6.000000000000000888 ) ;
#90 = APPROVAL_STATUS ( 'not_yet_approved' ) ;
#91 = DIRECTION ( 'NONE',  ( 1.000000000000000000, 0.000000000000000000, 0.000000000000000000 ) ) ;
#92 = ORGANIZATION ( 'NEURÈENÝ', 'NEURÈENÝ', '' ) ;
#93 = PERSON_AND_ORGANIZATION ( #163, #92 ) ;
#94 = DIRECTION ( 'NONE',  ( 1.000000000000000000, 0.000000000000000000, 0.000000000000000000 ) ) ;
#95 = APPROVAL_STATUS ( 'not_yet_approved' ) ;
#96 = PERSON_AND_ORGANIZATION ( #163, #92 ) ;
#97 = DIRECTION ( 'NONE',  ( -0.000000000000000000, -0.000000000000000000, -1.000000000000000000 ) ) ;
#98 = EDGE_CURVE ( 'NONE', #200, #106, #85, .T. ) ;
#99 = DIRECTION ( 'NONE',  ( -1.000000000000000000, 0.000000000000000000, 0.000000000000000000 ) ) ;
#100 = CC_DESIGN_PERSON_AND_ORGANIZATION_ASSIGNMENT ( #96, #133, ( #35 ) ) ;
#101 = ORIENTED_EDGE ( 'NONE', *, *, #143, .F. ) ;
#102 = VERTEX_POINT ( 'NONE', #108 ) ;
#103 = DIRECTION ( 'NONE',  ( 0.000000000000000000, 0.000000000000000000, 1.000000000000000000 ) ) ;
#104 = EDGE_LOOP ( 'NONE', ( #198, #1 ) ) ;
#105 = CARTESIAN_POINT ( 'NONE',  ( -6.000000000000000888, 0.000000000000000000, 5.000000000000000000 ) ) ;
#106 = VERTEX_POINT ( 'NONE', #70 ) ;
#107 = FACE_OUTER_BOUND ( 'NONE', #235, .T. ) ;
#108 = CARTESIAN_POINT ( 'NONE',  ( 6.000000000000000888, 7.347880794884120722E-16, 5.000000000000000000 ) ) ;
#109 = PERSON_AND_ORGANIZATION_ROLE ( 'creator' ) ;
#110 = CARTESIAN_POINT ( 'NONE',  ( 0.000000000000000000, 0.000000000000000000, 0.000000000000000000 ) ) ;
#111 = APPROVAL_DATE_TIME ( #225, #119 ) ;
#112 = DIRECTION ( 'NONE',  ( 1.000000000000000000, 0.000000000000000000, 0.000000000000000000 ) ) ;
#113 = CARTESIAN_POINT ( 'NONE',  ( 0.000000000000000000, 0.000000000000000000, 0.000000000000000000 ) ) ;
#114 = FACE_OUTER_BOUND ( 'NONE', #82, .T. ) ;
#115 = PLANE ( 'NONE',  #59 ) ;
#116 = APPROVAL_ROLE ( '' ) ;
#117 = CARTESIAN_POINT ( 'NONE',  ( -3.000000000000000444, 0.000000000000000000, 5.000000000000000000 ) ) ;
#118 = DIRECTION ( 'NONE',  ( -0.000000000000000000, -0.000000000000000000, -1.000000000000000000 ) ) ;
#119 = APPROVAL ( #67, 'NEURÈENÝ' ) ;
#120 = ADVANCED_FACE ( 'NONE', ( #107 ), #185, .T. ) ;
#121 = ORIENTED_EDGE ( 'NONE', *, *, #98, .F. ) ;
#122 = CARTESIAN_POINT ( 'NONE',  ( 3.000000000000000444, 3.673940397442060361E-16, 250.0000000000000000 ) ) ;
#123 = CC_DESIGN_APPROVAL ( #16, ( #42 ) ) ;
#124 = ORIENTED_EDGE ( 'NONE', *, *, #80, .T. ) ;
#125 = EDGE_LOOP ( 'NONE', ( #21, #180, #87, #20 ) ) ;
#126 = DIRECTION ( 'NONE',  ( 1.000000000000000000, 0.000000000000000000, 0.000000000000000000 ) ) ;
#127 = ADVANCED_FACE ( 'NONE', ( #63 ), #203, .T. ) ;
#128 = VECTOR ( 'NONE', #4, 1000.000000000000000 ) ;
#129 = DIRECTION ( 'NONE',  ( -0.000000000000000000, -0.000000000000000000, -1.000000000000000000 ) ) ;
#130 = CC_DESIGN_DATE_AND_TIME_ASSIGNMENT ( #210, #190, ( #159 ) ) ;
#131 = AXIS2_PLACEMENT_3D ( 'NONE', #19, #103, #151 ) ;
#132 = DIRECTION ( 'NONE',  ( -0.000000000000000000, -0.000000000000000000, -1.000000000000000000 ) ) ;
#133 = PERSON_AND_ORGANIZATION_ROLE ( 'classification_officer' ) ;
#134 = CARTESIAN_POINT ( 'NONE',  ( 0.000000000000000000, 0.000000000000000000, 0.000000000000000000 ) ) ;
#135 = MECHANICAL_CONTEXT ( 'NONE', #77, 'mechanical' ) ;
#136 = DIRECTION ( 'NONE',  ( -0.000000000000000000, -0.000000000000000000, -1.000000000000000000 ) ) ;
#137 = CC_DESIGN_APPROVAL ( #119, ( #159 ) ) ;
#138 = EDGE_CURVE ( 'NONE', #58, #176, #243, .T. ) ;
#139 = FACE_BOUND ( 'NONE', #23, .T. ) ;
#140 = CLOSED_SHELL ( 'NONE', ( #201, #153, #127, #32, #166, #120, #178 ) ) ;
#141 = LINE ( 'NONE', #105, #128 ) ;
#142 = APPROVAL_PERSON_ORGANIZATION ( #93, #18, #38 ) ;
#143 = EDGE_CURVE ( 'NONE', #183, #102, #215, .T. ) ;
#144 = DIRECTION ( 'NONE',  ( 0.000000000000000000, 0.000000000000000000, 1.000000000000000000 ) ) ;
#145 = ORIENTED_EDGE ( 'NONE', *, *, #238, .F. ) ;
#146 = AXIS2_PLACEMENT_3D ( 'NONE', #110, #29, #112 ) ;
#147 = DIRECTION ( 'NONE',  ( -0.000000000000000000, -0.000000000000000000, -1.000000000000000000 ) ) ;
#148 = CARTESIAN_POINT ( 'NONE',  ( 0.000000000000000000, 0.000000000000000000, 5.000000000000000000 ) ) ;
#149 = PERSON_AND_ORGANIZATION ( #163, #92 ) ;
#150 = AXIS2_PLACEMENT_3D ( 'NONE', #177, #41, #126 ) ;
#151 = DIRECTION ( 'NONE',  ( 1.000000000000000000, 0.000000000000000000, -0.000000000000000000 ) ) ;
#152 = CYLINDRICAL_SURFACE ( 'NONE', #71, 3.000000000000000444 ) ;
#153 = ADVANCED_FACE ( 'NONE', ( #169 ), #246, .T. ) ;
#154 = ADVANCED_BREP_SHAPE_REPRESENTATION ( '6bf7', ( #31, #164 ), #202 ) ;
#155 = ORIENTED_EDGE ( 'NONE', *, *, #10, .F. ) ;
#156 = ORIENTED_EDGE ( 'NONE', *, *, #98, .T. ) ;
#157 = DIRECTION ( 'NONE',  ( 0.000000000000000000, 0.000000000000000000, 1.000000000000000000 ) ) ;
#158 = VERTEX_POINT ( 'NONE', #122 ) ;
#159 = PRODUCT_DEFINITION ( 'NEZNÁMÝ', '', #42, #6 ) ;
#160 = ORIENTED_EDGE ( 'NONE', *, *, #78, .F. ) ;
#161 = APPLICATION_CONTEXT ( 'configuration controlled 3d designs of mechanical parts and assemblies' ) ;
#162 = EDGE_LOOP ( 'NONE', ( #60, #124, #40, #155 ) ) ;
#163 = PERSON ( 'NEURÈENÝ', 'NEURÈENÝ', 'NEURÈENÝ', ('NEURÈENÝ'), ('NEURÈENÝ'), ('NEURÈENÝ') ) ;
#164 = AXIS2_PLACEMENT_3D ( 'NONE', #113, #75, #207 ) ;
#165 = CARTESIAN_POINT ( 'NONE',  ( 6.000000000000000888, 7.347880794884120722E-16, 5.000000000000000000 ) ) ;
#166 = ADVANCED_FACE ( 'NONE', ( #114 ), #115, .F. ) ;
#167 = COORDINATED_UNIVERSAL_TIME_OFFSET ( 1, 0, .AHEAD. ) ;
#168 = CIRCLE ( 'NONE', #26, 3.000000000000000444 ) ;
#169 = FACE_OUTER_BOUND ( 'NONE', #162, .T. ) ;
#170 = LOCAL_TIME ( 15, 7, 16.00000000000000000, #167 ) ;
#171 = CALENDAR_DATE ( 2023, 13, 2 ) ;
#172 = DIRECTION ( 'NONE',  ( 0.000000000000000000, 0.000000000000000000, 1.000000000000000000 ) ) ;
#173 = COORDINATED_UNIVERSAL_TIME_OFFSET ( 1, 0, .AHEAD. ) ;
#174 = PRODUCT_DEFINITION_SHAPE ( 'NONE', 'NONE',  #159 ) ;
#175 = AXIS2_PLACEMENT_3D ( 'NONE', #34, #157, #94 ) ;
#176 = VERTEX_POINT ( 'NONE', #196 ) ;
#177 = CARTESIAN_POINT ( 'NONE',  ( 0.000000000000000000, 0.000000000000000000, 5.000000000000000000 ) ) ;
#178 = ADVANCED_FACE ( 'NONE', ( #206 ), #17, .T. ) ;
#179 = LINE ( 'NONE', #247, #45 ) ;
#180 = ORIENTED_EDGE ( 'NONE', *, *, #238, .T. ) ;
#181 = CC_DESIGN_PERSON_AND_ORGANIZATION_ASSIGNMENT ( #187, #109, ( #42 ) ) ;
#182 = ORIENTED_EDGE ( 'NONE', *, *, #230, .F. ) ;
#183 = VERTEX_POINT ( 'NONE', #253 ) ;
#184 = CARTESIAN_POINT ( 'NONE',  ( 0.000000000000000000, 0.000000000000000000, 250.0000000000000000 ) ) ;
#185 = CYLINDRICAL_SURFACE ( 'NONE', #3, 3.000000000000000444 ) ;
#186 = PRODUCT_RELATED_PRODUCT_CATEGORY ( 'detail', '', ( #76 ) ) ;
#187 = PERSON_AND_ORGANIZATION ( #163, #92 ) ;
#188 = PERSON_AND_ORGANIZATION ( #163, #92 ) ;
#189 = DIRECTION ( 'NONE',  ( 0.000000000000000000, 0.000000000000000000, 1.000000000000000000 ) ) ;
#190 = DATE_TIME_ROLE ( 'creation_date' ) ;
#191 = DIRECTION ( 'NONE',  ( -0.000000000000000000, -0.000000000000000000, -1.000000000000000000 ) ) ;
#192 = DATE_AND_TIME ( #30, #252 ) ;
#193 = CARTESIAN_POINT ( 'NONE',  ( -3.000000000000000444, 0.000000000000000000, 250.0000000000000000 ) ) ;
#194 = APPROVAL_DATE_TIME ( #223, #16 ) ;
#195 = CARTESIAN_POINT ( 'NONE',  ( 0.000000000000000000, 0.000000000000000000, 0.000000000000000000 ) ) ;
#196 = CARTESIAN_POINT ( 'NONE',  ( 6.000000000000000888, 7.347880794884120722E-16, 0.000000000000000000 ) ) ;
#197 = PLANE ( 'NONE',  #25 ) ;
#198 = ORIENTED_EDGE ( 'NONE', *, *, #241, .T. ) ;
#199 = VERTEX_POINT ( 'NONE', #193 ) ;
#200 = VERTEX_POINT ( 'NONE', #117 ) ;
#201 = ADVANCED_FACE ( 'NONE', ( #248 ), #152, .T. ) ;
#202 =( GEOMETRIC_REPRESENTATION_CONTEXT ( 3 ) GLOBAL_UNCERTAINTY_ASSIGNED_CONTEXT ( ( #208 ) ) GLOBAL_UNIT_ASSIGNED_CONTEXT ( ( #251, #224, #233 ) ) REPRESENTATION_CONTEXT ( 'NONE', 'WORKASPACE' ) );
#203 = CYLINDRICAL_SURFACE ( 'NONE', #62, 6.000000000000000888 ) ;
#204 = DIRECTION ( 'NONE',  ( 1.000000000000000000, 0.000000000000000000, 0.000000000000000000 ) ) ;
#205 = APPLICATION_PROTOCOL_DEFINITION ( 'international standard', 'config_control_design', 1994, #161 ) ;
#206 = FACE_OUTER_BOUND ( 'NONE', #104, .T. ) ;
#207 = DIRECTION ( 'NONE',  ( 1.000000000000000000, 0.000000000000000000, 0.000000000000000000 ) ) ;
#208 = UNCERTAINTY_MEASURE_WITH_UNIT (LENGTH_MEASURE( 1.000000000000000082E-05 ), #251, 'distance_accuracy_value', 'NONE');
#209 = CIRCLE ( 'NONE', #175, 3.000000000000000444 ) ;
#210 = DATE_AND_TIME ( #171, #170 ) ;
#211 = CARTESIAN_POINT ( 'NONE',  ( 0.000000000000000000, 0.000000000000000000, 250.0000000000000000 ) ) ;
#212 = EDGE_CURVE ( 'NONE', #199, #200, #179, .T. ) ;
#213 = COORDINATED_UNIVERSAL_TIME_OFFSET ( 1, 0, .AHEAD. ) ;
#214 = FACE_OUTER_BOUND ( 'NONE', #237, .T. ) ;
#215 = CIRCLE ( 'NONE', #50, 6.000000000000000888 ) ;
#216 = CARTESIAN_POINT ( 'NONE',  ( -6.000000000000000888, 0.000000000000000000, 0.000000000000000000 ) ) ;
#217 = ORIENTED_EDGE ( 'NONE', *, *, #69, .T. ) ;
#218 = ORIENTED_EDGE ( 'NONE', *, *, #138, .F. ) ;
#219 = VECTOR ( 'NONE', #129, 1000.000000000000000 ) ;
#220 = CARTESIAN_POINT ( 'NONE',  ( 0.000000000000000000, 0.000000000000000000, 5.000000000000000000 ) ) ;
#221 = VECTOR ( 'NONE', #136, 1000.000000000000000 ) ;
#222 = SECURITY_CLASSIFICATION_LEVEL ( 'unclassified' ) ;
#223 = DATE_AND_TIME ( #33, #231 ) ;
#224 =( NAMED_UNIT ( * ) PLANE_ANGLE_UNIT ( ) SI_UNIT ( $, .RADIAN. ) );
#225 = DATE_AND_TIME ( #28, #86 ) ;
#226 = AXIS2_PLACEMENT_3D ( 'NONE', #7, #68, #204 ) ;
#227 = DIRECTION ( 'NONE',  ( -1.000000000000000000, 0.000000000000000000, 0.000000000000000000 ) ) ;
#228 = AXIS2_PLACEMENT_3D ( 'NONE', #211, #74, #81 ) ;
#229 = CALENDAR_DATE ( 2023, 13, 2 ) ;
#230 = EDGE_CURVE ( 'NONE', #176, #58, #89, .T. ) ;
#231 = LOCAL_TIME ( 15, 7, 16.00000000000000000, #244 ) ;
#232 = ORIENTED_EDGE ( 'NONE', *, *, #10, .T. ) ;
#233 =( NAMED_UNIT ( * ) SI_UNIT ( $, .STERADIAN. ) SOLID_ANGLE_UNIT ( ) );
#234 = CC_DESIGN_PERSON_AND_ORGANIZATION_ASSIGNMENT ( #188, #242, ( #159 ) ) ;
#235 = EDGE_LOOP ( 'NONE', ( #145, #79, #254, #156 ) ) ;
#236 = DIRECTION ( 'NONE',  ( 0.000000000000000000, 0.000000000000000000, 1.000000000000000000 ) ) ;
#237 = EDGE_LOOP ( 'NONE', ( #239, #217 ) ) ;
#238 = EDGE_CURVE ( 'NONE', #158, #106, #2, .T. ) ;
#239 = ORIENTED_EDGE ( 'NONE', *, *, #143, .T. ) ;
#240 = AXIS2_PLACEMENT_3D ( 'NONE', #73, #191, #99 ) ;
#241 = EDGE_CURVE ( 'NONE', #199, #158, #209, .T. ) ;
#242 = PERSON_AND_ORGANIZATION_ROLE ( 'creator' ) ;
#243 = CIRCLE ( 'NONE', #146, 6.000000000000000888 ) ;
#244 = COORDINATED_UNIVERSAL_TIME_OFFSET ( 1, 0, .AHEAD. ) ;
#245 = CIRCLE ( 'NONE', #228, 3.000000000000000444 ) ;
#246 = CYLINDRICAL_SURFACE ( 'NONE', #240, 6.000000000000000888 ) ;
#247 = CARTESIAN_POINT ( 'NONE',  ( -3.000000000000000444, 0.000000000000000000, 250.0000000000000000 ) ) ;
#248 = FACE_OUTER_BOUND ( 'NONE', #125, .T. ) ;
#249 = SHAPE_DEFINITION_REPRESENTATION ( #174, #154 ) ;
#250 = CC_DESIGN_SECURITY_CLASSIFICATION ( #35, ( #42 ) ) ;
#251 =( LENGTH_UNIT ( ) NAMED_UNIT ( * ) SI_UNIT ( .MILLI., .METRE. ) );
#252 = LOCAL_TIME ( 15, 7, 16.00000000000000000, #173 ) ;
#253 = CARTESIAN_POINT ( 'NONE',  ( -6.000000000000000888, 0.000000000000000000, 5.000000000000000000 ) ) ;
#254 = ORIENTED_EDGE ( 'NONE', *, *, #212, .T. ) ;
#255 = EDGE_CURVE ( 'NONE', #158, #199, #245, .T. ) ;
ENDSEC;
END-ISO-10303-21;
