ISO-10303-21;
HEADER;
FILE_DESCRIPTION (( 'STEP AP203' ),
    '1' );
FILE_NAME ('3f5b.STEP',
    '2023-01-31T14:34:33',
    ( '' ),
    ( '' ),
    'SwSTEP 2.0',
    'SolidWorks 2019',
    '' );
FILE_SCHEMA (( 'CONFIG_CONTROL_DESIGN' ));
ENDSEC;

DATA;
#1 = DATE_AND_TIME ( #107, #211 ) ;
#2 = CC_DESIGN_PERSON_AND_ORGANIZATION_ASSIGNMENT ( #195, #20, ( #239 ) ) ;
#3 = APPROVAL_STATUS ( 'not_yet_approved' ) ;
#4 = CARTESIAN_POINT ( 'NONE',  ( 0.000000000000000000, 0.000000000000000000, 1.199999999999999956 ) ) ;
#5 = AXIS2_PLACEMENT_3D ( 'NONE', #45, #25, #203 ) ;
#6 = DIRECTION ( 'NONE',  ( -0.000000000000000000, -0.000000000000000000, -1.000000000000000000 ) ) ;
#7 = CARTESIAN_POINT ( 'NONE',  ( -0.5000000000000000000, 0.000000000000000000, 100.0000000000000000 ) ) ;
#8 = CC_DESIGN_PERSON_AND_ORGANIZATION_ASSIGNMENT ( #42, #129, ( #163 ) ) ;
#9 = CARTESIAN_POINT ( 'NONE',  ( -0.5000000000000000000, 0.000000000000000000, 100.0000000000000000 ) ) ;
#10 = EDGE_LOOP ( 'NONE', ( #219, #21, #177, #209 ) ) ;
#11 = VERTEX_POINT ( 'NONE', #132 ) ;
#12 = MANIFOLD_SOLID_BREP ( 'Pøidat vysunutím3', #213 ) ;
#13 = CARTESIAN_POINT ( 'NONE',  ( 0.000000000000000000, 0.000000000000000000, 1.199999999999999956 ) ) ;
#14 = EDGE_CURVE ( 'NONE', #55, #148, #80, .T. ) ;
#15 = ORIENTED_EDGE ( 'NONE', *, *, #94, .F. ) ;
#16 = AXIS2_PLACEMENT_3D ( 'NONE', #70, #167, #35 ) ;
#17 = CARTESIAN_POINT ( 'NONE',  ( 1.250000000000000000, 1.530808498934191571E-16, 1.199999999999999956 ) ) ;
#18 = PERSON ( 'NEURÈENÝ', 'NEURÈENÝ', 'NEURÈENÝ', ('NEURÈENÝ'), ('NEURÈENÝ'), ('NEURÈENÝ') ) ;
#19 =( LENGTH_UNIT ( ) NAMED_UNIT ( * ) SI_UNIT ( .MILLI., .METRE. ) );
#20 = PERSON_AND_ORGANIZATION_ROLE ( 'classification_officer' ) ;
#21 = ORIENTED_EDGE ( 'NONE', *, *, #196, .F. ) ;
#22 = COORDINATED_UNIVERSAL_TIME_OFFSET ( 1, 0, .AHEAD. ) ;
#23 = APPLICATION_PROTOCOL_DEFINITION ( 'international standard', 'config_control_design', 1994, #117 ) ;
#24 = APPROVAL ( #131, 'NEURÈENÝ' ) ;
#25 = DIRECTION ( 'NONE',  ( 0.000000000000000000, 0.000000000000000000, 1.000000000000000000 ) ) ;
#26 = DIRECTION ( 'NONE',  ( 0.000000000000000000, 0.000000000000000000, 1.000000000000000000 ) ) ;
#27 = DIRECTION ( 'NONE',  ( 1.000000000000000000, 0.000000000000000000, -0.000000000000000000 ) ) ;
#28 = CIRCLE ( 'NONE', #169, 1.250000000000000000 ) ;
#29 = DIRECTION ( 'NONE',  ( 0.000000000000000000, 0.000000000000000000, 1.000000000000000000 ) ) ;
#30 = CARTESIAN_POINT ( 'NONE',  ( 0.000000000000000000, 0.000000000000000000, 1.199999999999999956 ) ) ;
#31 = ADVANCED_FACE ( 'NONE', ( #183 ), #205, .T. ) ;
#32 = CARTESIAN_POINT ( 'NONE',  ( 0.000000000000000000, 0.000000000000000000, 0.000000000000000000 ) ) ;
#33 = LOCAL_TIME ( 15, 34, 33.00000000000000000, #253 ) ;
#34 = ORIENTED_EDGE ( 'NONE', *, *, #242, .F. ) ;
#35 = DIRECTION ( 'NONE',  ( -1.000000000000000000, 0.000000000000000000, 0.000000000000000000 ) ) ;
#36 = LOCAL_TIME ( 15, 34, 33.00000000000000000, #198 ) ;
#37 = DATE_AND_TIME ( #120, #139 ) ;
#38 = PERSON_AND_ORGANIZATION ( #18, #157 ) ;
#39 = CIRCLE ( 'NONE', #89, 0.5000000000000000000 ) ;
#40 = CARTESIAN_POINT ( 'NONE',  ( 0.000000000000000000, 0.000000000000000000, 0.000000000000000000 ) ) ;
#41 = CC_DESIGN_PERSON_AND_ORGANIZATION_ASSIGNMENT ( #175, #134, ( #133 ) ) ;
#42 = PERSON_AND_ORGANIZATION ( #18, #157 ) ;
#43 = DIRECTION ( 'NONE',  ( -0.000000000000000000, -0.000000000000000000, -1.000000000000000000 ) ) ;
#44 = CIRCLE ( 'NONE', #180, 1.250000000000000000 ) ;
#45 = CARTESIAN_POINT ( 'NONE',  ( 0.000000000000000000, 0.000000000000000000, 100.0000000000000000 ) ) ;
#46 = PRODUCT_RELATED_PRODUCT_CATEGORY ( 'detail', '', ( #133 ) ) ;
#47 = CARTESIAN_POINT ( 'NONE',  ( 0.000000000000000000, 0.000000000000000000, 100.0000000000000000 ) ) ;
#48 = DIRECTION ( 'NONE',  ( 1.000000000000000000, 0.000000000000000000, 0.000000000000000000 ) ) ;
#49 = LOCAL_TIME ( 15, 34, 33.00000000000000000, #22 ) ;
#50 = FACE_OUTER_BOUND ( 'NONE', #166, .T. ) ;
#51 = DIRECTION ( 'NONE',  ( 0.000000000000000000, 0.000000000000000000, 1.000000000000000000 ) ) ;
#52 = DIRECTION ( 'NONE',  ( 1.000000000000000000, 0.000000000000000000, 0.000000000000000000 ) ) ;
#53 = DIRECTION ( 'NONE',  ( 0.000000000000000000, 0.000000000000000000, 1.000000000000000000 ) ) ;
#54 = AXIS2_PLACEMENT_3D ( 'NONE', #47, #83, #48 ) ;
#55 = VERTEX_POINT ( 'NONE', #225 ) ;
#56 = DATE_TIME_ROLE ( 'creation_date' ) ;
#57 = ORIENTED_EDGE ( 'NONE', *, *, #84, .F. ) ;
#58 = DIRECTION ( 'NONE',  ( 0.000000000000000000, 0.000000000000000000, 1.000000000000000000 ) ) ;
#59 = APPROVAL ( #254, 'NEURÈENÝ' ) ;
#60 = ORIENTED_EDGE ( 'NONE', *, *, #87, .T. ) ;
#61 = AXIS2_PLACEMENT_3D ( 'NONE', #13, #53, #110 ) ;
#62 = ADVANCED_FACE ( 'NONE', ( #123 ), #143, .F. ) ;
#63 = CALENDAR_DATE ( 2023, 31, 1 ) ;
#64 = ORIENTED_EDGE ( 'NONE', *, *, #196, .T. ) ;
#65 = CARTESIAN_POINT ( 'NONE',  ( 0.000000000000000000, 0.000000000000000000, 1.199999999999999956 ) ) ;
#66 = DIRECTION ( 'NONE',  ( 1.000000000000000000, 0.000000000000000000, 0.000000000000000000 ) ) ;
#67 = DIRECTION ( 'NONE',  ( 0.000000000000000000, 0.000000000000000000, 1.000000000000000000 ) ) ;
#68 = APPROVAL_PERSON_ORGANIZATION ( #91, #202, #141 ) ;
#69 = DIRECTION ( 'NONE',  ( -0.000000000000000000, -0.000000000000000000, -1.000000000000000000 ) ) ;
#70 = CARTESIAN_POINT ( 'NONE',  ( 0.000000000000000000, 0.000000000000000000, 100.0000000000000000 ) ) ;
#71 = AXIS2_PLACEMENT_3D ( 'NONE', #223, #69, #101 ) ;
#72 = CIRCLE ( 'NONE', #147, 1.250000000000000000 ) ;
#73 = APPLICATION_PROTOCOL_DEFINITION ( 'international standard', 'config_control_design', 1994, #136 ) ;
#74 = SECURITY_CLASSIFICATION_LEVEL ( 'unclassified' ) ;
#75 = ADVANCED_FACE ( 'NONE', ( #222 ), #85, .T. ) ;
#76 = CIRCLE ( 'NONE', #54, 0.5000000000000000000 ) ;
#77 = ORIENTED_EDGE ( 'NONE', *, *, #242, .T. ) ;
#78 = DIRECTION ( 'NONE',  ( -1.000000000000000000, 0.000000000000000000, 0.000000000000000000 ) ) ;
#79 = DIRECTION ( 'NONE',  ( -0.000000000000000000, -0.000000000000000000, -1.000000000000000000 ) ) ;
#80 = CIRCLE ( 'NONE', #146, 1.250000000000000000 ) ;
#81 = AXIS2_PLACEMENT_3D ( 'NONE', #238, #29, #27 ) ;
#82 = FACE_BOUND ( 'NONE', #152, .T. ) ;
#83 = DIRECTION ( 'NONE',  ( 0.000000000000000000, 0.000000000000000000, 1.000000000000000000 ) ) ;
#84 = EDGE_CURVE ( 'NONE', #235, #55, #124, .T. ) ;
#85 = CYLINDRICAL_SURFACE ( 'NONE', #226, 1.250000000000000000 ) ;
#86 = APPROVAL_PERSON_ORGANIZATION ( #217, #24, #174 ) ;
#87 = EDGE_CURVE ( 'NONE', #232, #235, #44, .T. ) ;
#88 = LINE ( 'NONE', #9, #218 ) ;
#89 = AXIS2_PLACEMENT_3D ( 'NONE', #65, #67, #142 ) ;
#90 = CARTESIAN_POINT ( 'NONE',  ( -0.5000000000000000000, 0.000000000000000000, 1.199999999999999956 ) ) ;
#91 = PERSON_AND_ORGANIZATION ( #18, #157 ) ;
#92 = CARTESIAN_POINT ( 'NONE',  ( 0.000000000000000000, 0.000000000000000000, 0.000000000000000000 ) ) ;
#93 = AXIS2_PLACEMENT_3D ( 'NONE', #104, #26, #186 ) ;
#94 = EDGE_CURVE ( 'NONE', #246, #127, #76, .T. ) ;
#95 = APPROVAL_DATE_TIME ( #220, #59 ) ;
#96 = ORIENTED_EDGE ( 'NONE', *, *, #245, .F. ) ;
#97 = PERSON_AND_ORGANIZATION ( #18, #157 ) ;
#98 = CALENDAR_DATE ( 2023, 31, 1 ) ;
#99 = CIRCLE ( 'NONE', #5, 0.5000000000000000000 ) ;
#100 = APPROVAL_DATE_TIME ( #1, #202 ) ;
#101 = DIRECTION ( 'NONE',  ( -1.000000000000000000, 0.000000000000000000, 0.000000000000000000 ) ) ;
#102 = EDGE_CURVE ( 'NONE', #246, #11, #161, .T. ) ;
#103 = CARTESIAN_POINT ( 'NONE',  ( 0.000000000000000000, 0.000000000000000000, 100.0000000000000000 ) ) ;
#104 = CARTESIAN_POINT ( 'NONE',  ( 0.000000000000000000, 0.000000000000000000, 1.199999999999999956 ) ) ;
#105 = ADVANCED_FACE ( 'NONE', ( #82, #187 ), #204, .T. ) ;
#106 = CARTESIAN_POINT ( 'NONE',  ( 0.5000000000000000000, 6.123233995736766036E-17, 100.0000000000000000 ) ) ;
#107 = CALENDAR_DATE ( 2023, 31, 1 ) ;
#108 = CARTESIAN_POINT ( 'NONE',  ( 0.000000000000000000, 0.000000000000000000, 1.199999999999999956 ) ) ;
#109 = EDGE_LOOP ( 'NONE', ( #164, #255, #237, #137 ) ) ;
#110 = DIRECTION ( 'NONE',  ( 1.000000000000000000, 0.000000000000000000, 0.000000000000000000 ) ) ;
#111 = EDGE_LOOP ( 'NONE', ( #250, #221 ) ) ;
#112 = DIRECTION ( 'NONE',  ( 1.000000000000000000, 0.000000000000000000, -0.000000000000000000 ) ) ;
#113 = AXIS2_PLACEMENT_3D ( 'NONE', #103, #240, #112 ) ;
#114 = PRODUCT_DEFINITION ( 'NEZNÁMÝ', '', #163, #171 ) ;
#115 =( NAMED_UNIT ( * ) PLANE_ANGLE_UNIT ( ) SI_UNIT ( $, .RADIAN. ) );
#116 = ORIENTED_EDGE ( 'NONE', *, *, #102, .T. ) ;
#117 = APPLICATION_CONTEXT ( 'configuration controlled 3d designs of mechanical parts and assemblies' ) ;
#118 = PERSON_AND_ORGANIZATION_ROLE ( 'creator' ) ;
#119 = COORDINATED_UNIVERSAL_TIME_OFFSET ( 1, 0, .AHEAD. ) ;
#120 = CALENDAR_DATE ( 2023, 31, 1 ) ;
#121 = PLANE ( 'NONE',  #113 ) ;
#122 = UNCERTAINTY_MEASURE_WITH_UNIT (LENGTH_MEASURE( 1.000000000000000082E-05 ), #19, 'distance_accuracy_value', 'NONE');
#123 = FACE_OUTER_BOUND ( 'NONE', #189, .T. ) ;
#124 = LINE ( 'NONE', #162, #160 ) ;
#125 = DIRECTION ( 'NONE',  ( -0.000000000000000000, -0.000000000000000000, -1.000000000000000000 ) ) ;
#126 = ORIENTED_EDGE ( 'NONE', *, *, #145, .T. ) ;
#127 = VERTEX_POINT ( 'NONE', #7 ) ;
#128 =( GEOMETRIC_REPRESENTATION_CONTEXT ( 3 ) GLOBAL_UNCERTAINTY_ASSIGNED_CONTEXT ( ( #122 ) ) GLOBAL_UNIT_ASSIGNED_CONTEXT ( ( #19, #115, #153 ) ) REPRESENTATION_CONTEXT ( 'NONE', 'WORKASPACE' ) );
#129 = PERSON_AND_ORGANIZATION_ROLE ( 'design_supplier' ) ;
#130 = CC_DESIGN_SECURITY_CLASSIFICATION ( #239, ( #163 ) ) ;
#131 = APPROVAL_STATUS ( 'not_yet_approved' ) ;
#132 = CARTESIAN_POINT ( 'NONE',  ( 0.5000000000000000000, 6.123233995736766036E-17, 1.199999999999999956 ) ) ;
#133 = PRODUCT ( '3f5b', '3f5b', '', ( #234 ) ) ;
#134 = PERSON_AND_ORGANIZATION_ROLE ( 'design_owner' ) ;
#135 = VECTOR ( 'NONE', #43, 1000.000000000000000 ) ;
#136 = APPLICATION_CONTEXT ( 'configuration controlled 3d designs of mechanical parts and assemblies' ) ;
#137 = ORIENTED_EDGE ( 'NONE', *, *, #249, .T. ) ;
#138 = CARTESIAN_POINT ( 'NONE',  ( 1.250000000000000000, 1.530808498934191571E-16, 0.000000000000000000 ) ) ;
#139 = LOCAL_TIME ( 15, 34, 33.00000000000000000, #119 ) ;
#140 = DIRECTION ( 'NONE',  ( 0.000000000000000000, 0.000000000000000000, 1.000000000000000000 ) ) ;
#141 = APPROVAL_ROLE ( '' ) ;
#142 = DIRECTION ( 'NONE',  ( 1.000000000000000000, 0.000000000000000000, 0.000000000000000000 ) ) ;
#143 = PLANE ( 'NONE',  #81 ) ;
#144 = CC_DESIGN_APPROVAL ( #59, ( #163 ) ) ;
#145 = EDGE_CURVE ( 'NONE', #11, #247, #39, .T. ) ;
#146 = AXIS2_PLACEMENT_3D ( 'NONE', #92, #140, #159 ) ;
#147 = AXIS2_PLACEMENT_3D ( 'NONE', #229, #208, #192 ) ;
#148 = VERTEX_POINT ( 'NONE', #138 ) ;
#149 = ADVANCED_FACE ( 'NONE', ( #50 ), #243, .T. ) ;
#150 = CYLINDRICAL_SURFACE ( 'NONE', #16, 0.5000000000000000000 ) ;
#151 = PRODUCT_DEFINITION_SHAPE ( 'NONE', 'NONE',  #114 ) ;
#152 = EDGE_LOOP ( 'NONE', ( #190, #216 ) ) ;
#153 =( NAMED_UNIT ( * ) SI_UNIT ( $, .STERADIAN. ) SOLID_ANGLE_UNIT ( ) );
#154 = DIRECTION ( 'NONE',  ( 1.000000000000000000, 0.000000000000000000, 0.000000000000000000 ) ) ;
#155 = CALENDAR_DATE ( 2023, 31, 1 ) ;
#156 = ORIENTED_EDGE ( 'NONE', *, *, #87, .F. ) ;
#157 = ORGANIZATION ( 'NEURÈENÝ', 'NEURÈENÝ', '' ) ;
#158 = DIRECTION ( 'NONE',  ( -1.000000000000000000, 0.000000000000000000, 0.000000000000000000 ) ) ;
#159 = DIRECTION ( 'NONE',  ( 1.000000000000000000, 0.000000000000000000, 0.000000000000000000 ) ) ;
#160 = VECTOR ( 'NONE', #125, 1000.000000000000000 ) ;
#161 = LINE ( 'NONE', #106, #135 ) ;
#162 = CARTESIAN_POINT ( 'NONE',  ( -1.250000000000000000, 0.000000000000000000, 1.199999999999999956 ) ) ;
#163 = PRODUCT_DEFINITION_FORMATION_WITH_SPECIFIED_SOURCE ( 'LIBOVOLNÝ', '', #133, .NOT_KNOWN. ) ;
#164 = ORIENTED_EDGE ( 'NONE', *, *, #102, .F. ) ;
#165 = DIRECTION ( 'NONE',  ( -0.000000000000000000, -0.000000000000000000, -1.000000000000000000 ) ) ;
#166 = EDGE_LOOP ( 'NONE', ( #15, #116, #126, #96 ) ) ;
#167 = DIRECTION ( 'NONE',  ( -0.000000000000000000, -0.000000000000000000, -1.000000000000000000 ) ) ;
#168 = EDGE_CURVE ( 'NONE', #127, #246, #99, .T. ) ;
#169 = AXIS2_PLACEMENT_3D ( 'NONE', #32, #51, #52 ) ;
#170 = CARTESIAN_POINT ( 'NONE',  ( 0.5000000000000000000, 6.123233995736766036E-17, 100.0000000000000000 ) ) ;
#171 = DESIGN_CONTEXT ( 'detailed design', #117, 'design' ) ;
#172 = CC_DESIGN_DATE_AND_TIME_ASSIGNMENT ( #197, #214, ( #239 ) ) ;
#173 = VECTOR ( 'NONE', #79, 1000.000000000000000 ) ;
#174 = APPROVAL_ROLE ( '' ) ;
#175 = PERSON_AND_ORGANIZATION ( #18, #157 ) ;
#176 = PERSON_AND_ORGANIZATION_ROLE ( 'creator' ) ;
#177 = ORIENTED_EDGE ( 'NONE', *, *, #84, .T. ) ;
#178 = EDGE_CURVE ( 'NONE', #232, #148, #184, .T. ) ;
#179 = ORIENTED_EDGE ( 'NONE', *, *, #178, .T. ) ;
#180 = AXIS2_PLACEMENT_3D ( 'NONE', #30, #201, #66 ) ;
#181 = FACE_OUTER_BOUND ( 'NONE', #111, .T. ) ;
#182 = ADVANCED_FACE ( 'NONE', ( #181 ), #121, .T. ) ;
#183 = FACE_OUTER_BOUND ( 'NONE', #207, .T. ) ;
#184 = LINE ( 'NONE', #241, #173 ) ;
#185 = CIRCLE ( 'NONE', #61, 0.5000000000000000000 ) ;
#186 = DIRECTION ( 'NONE',  ( 1.000000000000000000, 0.000000000000000000, -0.000000000000000000 ) ) ;
#187 = FACE_OUTER_BOUND ( 'NONE', #248, .T. ) ;
#188 = CC_DESIGN_PERSON_AND_ORGANIZATION_ASSIGNMENT ( #38, #118, ( #163 ) ) ;
#189 = EDGE_LOOP ( 'NONE', ( #210, #34 ) ) ;
#190 = ORIENTED_EDGE ( 'NONE', *, *, #249, .F. ) ;
#191 = APPROVAL_PERSON_ORGANIZATION ( #215, #59, #193 ) ;
#192 = DIRECTION ( 'NONE',  ( 1.000000000000000000, 0.000000000000000000, 0.000000000000000000 ) ) ;
#193 = APPROVAL_ROLE ( '' ) ;
#194 = ADVANCED_FACE ( 'NONE', ( #228 ), #150, .T. ) ;
#195 = PERSON_AND_ORGANIZATION ( #18, #157 ) ;
#196 = EDGE_CURVE ( 'NONE', #235, #232, #72, .T. ) ;
#197 = DATE_AND_TIME ( #155, #36 ) ;
#198 = COORDINATED_UNIVERSAL_TIME_OFFSET ( 1, 0, .AHEAD. ) ;
#199 = COORDINATED_UNIVERSAL_TIME_OFFSET ( 1, 0, .AHEAD. ) ;
#200 = AXIS2_PLACEMENT_3D ( 'NONE', #4, #6, #158 ) ;
#201 = DIRECTION ( 'NONE',  ( 0.000000000000000000, 0.000000000000000000, 1.000000000000000000 ) ) ;
#202 = APPROVAL ( #3, 'NEURÈENÝ' ) ;
#203 = DIRECTION ( 'NONE',  ( 1.000000000000000000, 0.000000000000000000, 0.000000000000000000 ) ) ;
#204 = PLANE ( 'NONE',  #93 ) ;
#205 = CYLINDRICAL_SURFACE ( 'NONE', #200, 1.250000000000000000 ) ;
#206 = ADVANCED_BREP_SHAPE_REPRESENTATION ( '3f5b', ( #12, #212 ), #128 ) ;
#207 = EDGE_LOOP ( 'NONE', ( #156, #179, #77, #57 ) ) ;
#208 = DIRECTION ( 'NONE',  ( 0.000000000000000000, 0.000000000000000000, 1.000000000000000000 ) ) ;
#209 = ORIENTED_EDGE ( 'NONE', *, *, #14, .T. ) ;
#210 = ORIENTED_EDGE ( 'NONE', *, *, #14, .F. ) ;
#211 = LOCAL_TIME ( 15, 34, 33.00000000000000000, #199 ) ;
#212 = AXIS2_PLACEMENT_3D ( 'NONE', #40, #58, #154 ) ;
#213 = CLOSED_SHELL ( 'NONE', ( #149, #31, #75, #105, #62, #194, #182 ) ) ;
#214 = DATE_TIME_ROLE ( 'classification_date' ) ;
#215 = PERSON_AND_ORGANIZATION ( #18, #157 ) ;
#216 = ORIENTED_EDGE ( 'NONE', *, *, #145, .F. ) ;
#217 = PERSON_AND_ORGANIZATION ( #18, #157 ) ;
#218 = VECTOR ( 'NONE', #165, 1000.000000000000000 ) ;
#219 = ORIENTED_EDGE ( 'NONE', *, *, #178, .F. ) ;
#220 = DATE_AND_TIME ( #63, #33 ) ;
#221 = ORIENTED_EDGE ( 'NONE', *, *, #94, .T. ) ;
#222 = FACE_OUTER_BOUND ( 'NONE', #10, .T. ) ;
#223 = CARTESIAN_POINT ( 'NONE',  ( 0.000000000000000000, 0.000000000000000000, 100.0000000000000000 ) ) ;
#224 = DIRECTION ( 'NONE',  ( -0.000000000000000000, -0.000000000000000000, -1.000000000000000000 ) ) ;
#225 = CARTESIAN_POINT ( 'NONE',  ( -1.250000000000000000, 0.000000000000000000, 0.000000000000000000 ) ) ;
#226 = AXIS2_PLACEMENT_3D ( 'NONE', #108, #224, #78 ) ;
#227 = CARTESIAN_POINT ( 'NONE',  ( -1.250000000000000000, 0.000000000000000000, 1.199999999999999956 ) ) ;
#228 = FACE_OUTER_BOUND ( 'NONE', #109, .T. ) ;
#229 = CARTESIAN_POINT ( 'NONE',  ( 0.000000000000000000, 0.000000000000000000, 1.199999999999999956 ) ) ;
#230 = CC_DESIGN_DATE_AND_TIME_ASSIGNMENT ( #37, #56, ( #114 ) ) ;
#231 = APPROVAL_DATE_TIME ( #233, #24 ) ;
#232 = VERTEX_POINT ( 'NONE', #17 ) ;
#233 = DATE_AND_TIME ( #98, #49 ) ;
#234 = MECHANICAL_CONTEXT ( 'NONE', #136, 'mechanical' ) ;
#235 = VERTEX_POINT ( 'NONE', #227 ) ;
#236 = SHAPE_DEFINITION_REPRESENTATION ( #151, #206 ) ;
#237 = ORIENTED_EDGE ( 'NONE', *, *, #245, .T. ) ;
#238 = CARTESIAN_POINT ( 'NONE',  ( 0.000000000000000000, 0.000000000000000000, 0.000000000000000000 ) ) ;
#239 = SECURITY_CLASSIFICATION ( '', '', #74 ) ;
#240 = DIRECTION ( 'NONE',  ( 0.000000000000000000, 0.000000000000000000, 1.000000000000000000 ) ) ;
#241 = CARTESIAN_POINT ( 'NONE',  ( 1.250000000000000000, 1.530808498934191571E-16, 1.199999999999999956 ) ) ;
#242 = EDGE_CURVE ( 'NONE', #148, #55, #28, .T. ) ;
#243 = CYLINDRICAL_SURFACE ( 'NONE', #71, 0.5000000000000000000 ) ;
#244 = CC_DESIGN_APPROVAL ( #202, ( #239 ) ) ;
#245 = EDGE_CURVE ( 'NONE', #127, #247, #88, .T. ) ;
#246 = VERTEX_POINT ( 'NONE', #170 ) ;
#247 = VERTEX_POINT ( 'NONE', #90 ) ;
#248 = EDGE_LOOP ( 'NONE', ( #64, #60 ) ) ;
#249 = EDGE_CURVE ( 'NONE', #247, #11, #185, .T. ) ;
#250 = ORIENTED_EDGE ( 'NONE', *, *, #168, .T. ) ;
#251 = CC_DESIGN_APPROVAL ( #24, ( #114 ) ) ;
#252 = CC_DESIGN_PERSON_AND_ORGANIZATION_ASSIGNMENT ( #97, #176, ( #114 ) ) ;
#253 = COORDINATED_UNIVERSAL_TIME_OFFSET ( 1, 0, .AHEAD. ) ;
#254 = APPROVAL_STATUS ( 'not_yet_approved' ) ;
#255 = ORIENTED_EDGE ( 'NONE', *, *, #168, .F. ) ;
ENDSEC;
END-ISO-10303-21;
