ISO-10303-21;
HEADER;
FILE_DESCRIPTION (( 'STEP AP203' ),
    '1' );
FILE_NAME ('30c5.STEP',
    '2023-02-13T07:52:44',
    ( '' ),
    ( '' ),
    'SwSTEP 2.0',
    'SolidWorks 2019',
    '' );
FILE_SCHEMA (( 'CONFIG_CONTROL_DESIGN' ));
ENDSEC;

DATA;
#1 = PRODUCT_DEFINITION_FORMATION_WITH_SPECIFIED_SOURCE ( 'LIBOVOLNÝ', '', #85, .NOT_KNOWN. ) ;
#2 = UNCERTAINTY_MEASURE_WITH_UNIT (LENGTH_MEASURE( 1.000000000000000082E-05 ), #117, 'distance_accuracy_value', 'NONE');
#3 = PLANE ( 'NONE',  #36 ) ;
#4 = DIRECTION ( 'NONE',  ( 0.000000000000000000, 0.000000000000000000, 1.000000000000000000 ) ) ;
#5 = AXIS2_PLACEMENT_3D ( 'NONE', #209, #103, #84 ) ;
#6 = DIRECTION ( 'NONE',  ( -0.000000000000000000, -0.000000000000000000, -1.000000000000000000 ) ) ;
#7 = EDGE_CURVE ( 'NONE', #92, #133, #95, .T. ) ;
#8 = CARTESIAN_POINT ( 'NONE',  ( 0.000000000000000000, 0.000000000000000000, 10.00000000000000000 ) ) ;
#9 = APPROVAL_PERSON_ORGANIZATION ( #252, #185, #215 ) ;
#10 = EDGE_CURVE ( 'NONE', #11, #108, #75, .T. ) ;
#11 = VERTEX_POINT ( 'NONE', #113 ) ;
#12 = CARTESIAN_POINT ( 'NONE',  ( 0.000000000000000000, 0.000000000000000000, 125.0000000000000000 ) ) ;
#13 = EDGE_CURVE ( 'NONE', #22, #11, #212, .T. ) ;
#14 = AXIS2_PLACEMENT_3D ( 'NONE', #87, #206, #247 ) ;
#15 = DIRECTION ( 'NONE',  ( -1.000000000000000000, 0.000000000000000000, 0.000000000000000000 ) ) ;
#16 = DIRECTION ( 'NONE',  ( 0.000000000000000000, 0.000000000000000000, 1.000000000000000000 ) ) ;
#17 = CARTESIAN_POINT ( 'NONE',  ( -12.50000000000000000, 0.000000000000000000, 125.0000000000000000 ) ) ;
#18 = AXIS2_PLACEMENT_3D ( 'NONE', #8, #163, #164 ) ;
#19 = DATE_AND_TIME ( #144, #231 ) ;
#20 = LOCAL_TIME ( 8, 52, 44.00000000000000000, #170 ) ;
#21 = COORDINATED_UNIVERSAL_TIME_OFFSET ( 1, 0, .AHEAD. ) ;
#22 = VERTEX_POINT ( 'NONE', #94 ) ;
#23 = PRODUCT_DEFINITION_SHAPE ( 'NONE', 'NONE',  #225 ) ;
#24 = PERSON_AND_ORGANIZATION ( #37, #204 ) ;
#25 = APPROVAL ( #167, 'NEURÈENÝ' ) ;
#26 = APPROVAL_PERSON_ORGANIZATION ( #172, #30, #125 ) ;
#27 = EDGE_CURVE ( 'NONE', #11, #22, #194, .T. ) ;
#28 = EDGE_LOOP ( 'NONE', ( #110, #58, #34, #123 ) ) ;
#29 = COORDINATED_UNIVERSAL_TIME_OFFSET ( 1, 0, .AHEAD. ) ;
#30 = APPROVAL ( #146, 'NEURÈENÝ' ) ;
#31 = DATE_AND_TIME ( #111, #222 ) ;
#32 = VERTEX_POINT ( 'NONE', #73 ) ;
#33 = PERSON_AND_ORGANIZATION_ROLE ( 'design_owner' ) ;
#34 = ORIENTED_EDGE ( 'NONE', *, *, #183, .T. ) ;
#35 = CARTESIAN_POINT ( 'NONE',  ( 12.50000000000000000, 1.530808498934191521E-15, 125.0000000000000000 ) ) ;
#36 = AXIS2_PLACEMENT_3D ( 'NONE', #56, #226, #205 ) ;
#37 = PERSON ( 'NEURÈENÝ', 'NEURÈENÝ', 'NEURÈENÝ', ('NEURÈENÝ'), ('NEURÈENÝ'), ('NEURÈENÝ') ) ;
#38 = EDGE_CURVE ( 'NONE', #108, #236, #98, .T. ) ;
#39 = VECTOR ( 'NONE', #118, 1000.000000000000000 ) ;
#40 = ORIENTED_EDGE ( 'NONE', *, *, #72, .F. ) ;
#41 = AXIS2_PLACEMENT_3D ( 'NONE', #116, #6, #97 ) ;
#42 = CALENDAR_DATE ( 2023, 13, 2 ) ;
#43 = ORIENTED_EDGE ( 'NONE', *, *, #13, .T. ) ;
#44 = CYLINDRICAL_SURFACE ( 'NONE', #41, 16.00000000000000000 ) ;
#45 = MANIFOLD_SOLID_BREP ( 'Pøidat vysunutím3', #57 ) ;
#46 =( GEOMETRIC_REPRESENTATION_CONTEXT ( 3 ) GLOBAL_UNCERTAINTY_ASSIGNED_CONTEXT ( ( #2 ) ) GLOBAL_UNIT_ASSIGNED_CONTEXT ( ( #117, #192, #156 ) ) REPRESENTATION_CONTEXT ( 'NONE', 'WORKASPACE' ) );
#47 = ORIENTED_EDGE ( 'NONE', *, *, #55, .T. ) ;
#48 = FACE_OUTER_BOUND ( 'NONE', #102, .T. ) ;
#49 = ADVANCED_FACE ( 'NONE', ( #182, #162 ), #3, .T. ) ;
#50 = DIRECTION ( 'NONE',  ( -0.000000000000000000, -0.000000000000000000, -1.000000000000000000 ) ) ;
#51 = DIRECTION ( 'NONE',  ( 1.000000000000000000, 0.000000000000000000, 0.000000000000000000 ) ) ;
#52 = DIRECTION ( 'NONE',  ( 0.000000000000000000, 0.000000000000000000, 1.000000000000000000 ) ) ;
#53 = DIRECTION ( 'NONE',  ( 1.000000000000000000, 0.000000000000000000, 0.000000000000000000 ) ) ;
#54 = MECHANICAL_CONTEXT ( 'NONE', #68, 'mechanical' ) ;
#55 = EDGE_CURVE ( 'NONE', #92, #32, #76, .T. ) ;
#56 = CARTESIAN_POINT ( 'NONE',  ( 0.000000000000000000, 0.000000000000000000, 10.00000000000000000 ) ) ;
#57 = CLOSED_SHELL ( 'NONE', ( #179, #105, #203, #49, #201, #80, #128 ) ) ;
#58 = ORIENTED_EDGE ( 'NONE', *, *, #154, .T. ) ;
#59 = PERSON_AND_ORGANIZATION ( #37, #204 ) ;
#60 = ORIENTED_EDGE ( 'NONE', *, *, #72, .T. ) ;
#61 = EDGE_LOOP ( 'NONE', ( #168, #208, #184, #157 ) ) ;
#62 = LOCAL_TIME ( 8, 52, 44.00000000000000000, #21 ) ;
#63 = LINE ( 'NONE', #148, #90 ) ;
#64 = CC_DESIGN_PERSON_AND_ORGANIZATION_ASSIGNMENT ( #59, #86, ( #1 ) ) ;
#65 = PERSON_AND_ORGANIZATION ( #37, #204 ) ;
#66 = APPROVAL_STATUS ( 'not_yet_approved' ) ;
#67 = VECTOR ( 'NONE', #228, 1000.000000000000000 ) ;
#68 = APPLICATION_CONTEXT ( 'configuration controlled 3d designs of mechanical parts and assemblies' ) ;
#69 = CC_DESIGN_DATE_AND_TIME_ASSIGNMENT ( #78, #165, ( #107 ) ) ;
#70 = DIRECTION ( 'NONE',  ( 0.000000000000000000, 0.000000000000000000, 1.000000000000000000 ) ) ;
#71 = DIRECTION ( 'NONE',  ( 1.000000000000000000, 0.000000000000000000, -0.000000000000000000 ) ) ;
#72 = EDGE_CURVE ( 'NONE', #32, #234, #127, .T. ) ;
#73 = CARTESIAN_POINT ( 'NONE',  ( -16.00000000000000000, 0.000000000000000000, 0.000000000000000000 ) ) ;
#74 = CC_DESIGN_PERSON_AND_ORGANIZATION_ASSIGNMENT ( #178, #177, ( #225 ) ) ;
#75 = LINE ( 'NONE', #17, #67 ) ;
#76 = LINE ( 'NONE', #229, #39 ) ;
#77 = FACE_OUTER_BOUND ( 'NONE', #83, .T. ) ;
#78 = DATE_AND_TIME ( #189, #20 ) ;
#79 = EDGE_CURVE ( 'NONE', #133, #92, #131, .T. ) ;
#80 = ADVANCED_FACE ( 'NONE', ( #77 ), #195, .T. ) ;
#81 = CARTESIAN_POINT ( 'NONE',  ( -12.50000000000000000, 0.000000000000000000, 10.00000000000000000 ) ) ;
#82 = PERSON_AND_ORGANIZATION ( #37, #204 ) ;
#83 = EDGE_LOOP ( 'NONE', ( #196, #253, #161, #129 ) ) ;
#84 = DIRECTION ( 'NONE',  ( 1.000000000000000000, 0.000000000000000000, -0.000000000000000000 ) ) ;
#85 = PRODUCT ( '30c5', '30c5', '', ( #54 ) ) ;
#86 = PERSON_AND_ORGANIZATION_ROLE ( 'design_supplier' ) ;
#87 = CARTESIAN_POINT ( 'NONE',  ( 0.000000000000000000, 0.000000000000000000, 0.000000000000000000 ) ) ;
#88 = PERSON_AND_ORGANIZATION_ROLE ( 'creator' ) ;
#89 = ADVANCED_BREP_SHAPE_REPRESENTATION ( '30c5', ( #45, #175 ), #46 ) ;
#90 = VECTOR ( 'NONE', #124, 1000.000000000000000 ) ;
#91 = CARTESIAN_POINT ( 'NONE',  ( 0.000000000000000000, 0.000000000000000000, 0.000000000000000000 ) ) ;
#92 = VERTEX_POINT ( 'NONE', #193 ) ;
#93 = CARTESIAN_POINT ( 'NONE',  ( 12.50000000000000000, 1.530808498934191521E-15, 10.00000000000000000 ) ) ;
#94 = CARTESIAN_POINT ( 'NONE',  ( 12.50000000000000000, 1.530808498934191521E-15, 125.0000000000000000 ) ) ;
#95 = CIRCLE ( 'NONE', #230, 16.00000000000000000 ) ;
#96 = LOCAL_TIME ( 8, 52, 44.00000000000000000, #207 ) ;
#97 = DIRECTION ( 'NONE',  ( -1.000000000000000000, 0.000000000000000000, 0.000000000000000000 ) ) ;
#98 = CIRCLE ( 'NONE', #159, 12.50000000000000000 ) ;
#99 = EDGE_CURVE ( 'NONE', #236, #108, #115, .T. ) ;
#100 = PERSON_AND_ORGANIZATION_ROLE ( 'classification_officer' ) ;
#101 = CARTESIAN_POINT ( 'NONE',  ( 0.000000000000000000, 0.000000000000000000, 10.00000000000000000 ) ) ;
#102 = EDGE_LOOP ( 'NONE', ( #217, #155, #47, #60 ) ) ;
#103 = DIRECTION ( 'NONE',  ( 0.000000000000000000, 0.000000000000000000, 1.000000000000000000 ) ) ;
#104 = ORIENTED_EDGE ( 'NONE', *, *, #7, .T. ) ;
#105 = ADVANCED_FACE ( 'NONE', ( #190 ), #44, .T. ) ;
#106 = AXIS2_PLACEMENT_3D ( 'NONE', #101, #149, #142 ) ;
#107 = SECURITY_CLASSIFICATION ( '', '', #173 ) ;
#108 = VERTEX_POINT ( 'NONE', #81 ) ;
#109 = DIRECTION ( 'NONE',  ( -1.000000000000000000, 0.000000000000000000, 0.000000000000000000 ) ) ;
#110 = ORIENTED_EDGE ( 'NONE', *, *, #79, .F. ) ;
#111 = CALENDAR_DATE ( 2023, 13, 2 ) ;
#112 = APPROVAL_DATE_TIME ( #122, #25 ) ;
#113 = CARTESIAN_POINT ( 'NONE',  ( -12.50000000000000000, 0.000000000000000000, 125.0000000000000000 ) ) ;
#114 = CARTESIAN_POINT ( 'NONE',  ( 0.000000000000000000, 0.000000000000000000, 10.00000000000000000 ) ) ;
#115 = CIRCLE ( 'NONE', #106, 12.50000000000000000 ) ;
#116 = CARTESIAN_POINT ( 'NONE',  ( 0.000000000000000000, 0.000000000000000000, 10.00000000000000000 ) ) ;
#117 =( LENGTH_UNIT ( ) NAMED_UNIT ( * ) SI_UNIT ( .MILLI., .METRE. ) );
#118 = DIRECTION ( 'NONE',  ( -0.000000000000000000, -0.000000000000000000, -1.000000000000000000 ) ) ;
#119 = APPROVAL_ROLE ( '' ) ;
#120 = AXIS2_PLACEMENT_3D ( 'NONE', #12, #153, #109 ) ;
#121 = PLANE ( 'NONE',  #5 ) ;
#122 = DATE_AND_TIME ( #42, #96 ) ;
#123 = ORIENTED_EDGE ( 'NONE', *, *, #55, .F. ) ;
#124 = DIRECTION ( 'NONE',  ( -0.000000000000000000, -0.000000000000000000, -1.000000000000000000 ) ) ;
#125 = APPROVAL_ROLE ( '' ) ;
#126 = APPROVAL_DATE_TIME ( #232, #30 ) ;
#127 = CIRCLE ( 'NONE', #14, 16.00000000000000000 ) ;
#128 = ADVANCED_FACE ( 'NONE', ( #188 ), #121, .T. ) ;
#129 = ORIENTED_EDGE ( 'NONE', *, *, #38, .T. ) ;
#130 = CYLINDRICAL_SURFACE ( 'NONE', #120, 12.50000000000000000 ) ;
#131 = CIRCLE ( 'NONE', #18, 16.00000000000000000 ) ;
#132 = DIRECTION ( 'NONE',  ( 1.000000000000000000, 0.000000000000000000, 0.000000000000000000 ) ) ;
#133 = VERTEX_POINT ( 'NONE', #169 ) ;
#134 = EDGE_LOOP ( 'NONE', ( #40, #137 ) ) ;
#135 = DIRECTION ( 'NONE',  ( 0.000000000000000000, 0.000000000000000000, 1.000000000000000000 ) ) ;
#136 = CARTESIAN_POINT ( 'NONE',  ( 0.000000000000000000, 0.000000000000000000, 10.00000000000000000 ) ) ;
#137 = ORIENTED_EDGE ( 'NONE', *, *, #183, .F. ) ;
#138 = PERSON_AND_ORGANIZATION ( #37, #204 ) ;
#139 = LINE ( 'NONE', #35, #147 ) ;
#140 = CC_DESIGN_APPROVAL ( #185, ( #225 ) ) ;
#141 = CYLINDRICAL_SURFACE ( 'NONE', #197, 16.00000000000000000 ) ;
#142 = DIRECTION ( 'NONE',  ( 1.000000000000000000, 0.000000000000000000, 0.000000000000000000 ) ) ;
#143 = DIRECTION ( 'NONE',  ( 1.000000000000000000, 0.000000000000000000, 0.000000000000000000 ) ) ;
#144 = CALENDAR_DATE ( 2023, 13, 2 ) ;
#145 = DIRECTION ( 'NONE',  ( -0.000000000000000000, -0.000000000000000000, -1.000000000000000000 ) ) ;
#146 = APPROVAL_STATUS ( 'not_yet_approved' ) ;
#147 = VECTOR ( 'NONE', #166, 1000.000000000000000 ) ;
#148 = CARTESIAN_POINT ( 'NONE',  ( 16.00000000000000000, 1.959434878635765131E-15, 10.00000000000000000 ) ) ;
#149 = DIRECTION ( 'NONE',  ( 0.000000000000000000, 0.000000000000000000, 1.000000000000000000 ) ) ;
#150 = AXIS2_PLACEMENT_3D ( 'NONE', #240, #70, #71 ) ;
#151 = CC_DESIGN_SECURITY_CLASSIFICATION ( #107, ( #1 ) ) ;
#152 = ORIENTED_EDGE ( 'NONE', *, *, #99, .F. ) ;
#153 = DIRECTION ( 'NONE',  ( -0.000000000000000000, -0.000000000000000000, -1.000000000000000000 ) ) ;
#154 = EDGE_CURVE ( 'NONE', #133, #234, #63, .T. ) ;
#155 = ORIENTED_EDGE ( 'NONE', *, *, #7, .F. ) ;
#156 =( NAMED_UNIT ( * ) SI_UNIT ( $, .STERADIAN. ) SOLID_ANGLE_UNIT ( ) );
#157 = ORIENTED_EDGE ( 'NONE', *, *, #10, .F. ) ;
#158 = ORIENTED_EDGE ( 'NONE', *, *, #79, .T. ) ;
#159 = AXIS2_PLACEMENT_3D ( 'NONE', #136, #219, #51 ) ;
#160 = CC_DESIGN_DATE_AND_TIME_ASSIGNMENT ( #19, #191, ( #225 ) ) ;
#161 = ORIENTED_EDGE ( 'NONE', *, *, #10, .T. ) ;
#162 = FACE_OUTER_BOUND ( 'NONE', #220, .T. ) ;
#163 = DIRECTION ( 'NONE',  ( 0.000000000000000000, 0.000000000000000000, 1.000000000000000000 ) ) ;
#164 = DIRECTION ( 'NONE',  ( 1.000000000000000000, 0.000000000000000000, 0.000000000000000000 ) ) ;
#165 = DATE_TIME_ROLE ( 'classification_date' ) ;
#166 = DIRECTION ( 'NONE',  ( -0.000000000000000000, -0.000000000000000000, -1.000000000000000000 ) ) ;
#167 = APPROVAL_STATUS ( 'not_yet_approved' ) ;
#168 = ORIENTED_EDGE ( 'NONE', *, *, #13, .F. ) ;
#169 = CARTESIAN_POINT ( 'NONE',  ( 16.00000000000000000, 1.959434878635765131E-15, 10.00000000000000000 ) ) ;
#170 = COORDINATED_UNIVERSAL_TIME_OFFSET ( 1, 0, .AHEAD. ) ;
#171 = CIRCLE ( 'NONE', #239, 16.00000000000000000 ) ;
#172 = PERSON_AND_ORGANIZATION ( #37, #204 ) ;
#173 = SECURITY_CLASSIFICATION_LEVEL ( 'unclassified' ) ;
#174 = EDGE_LOOP ( 'NONE', ( #251, #43 ) ) ;
#175 = AXIS2_PLACEMENT_3D ( 'NONE', #91, #135, #221 ) ;
#176 = APPLICATION_PROTOCOL_DEFINITION ( 'international standard', 'config_control_design', 1994, #187 ) ;
#177 = PERSON_AND_ORGANIZATION_ROLE ( 'creator' ) ;
#178 = PERSON_AND_ORGANIZATION ( #37, #204 ) ;
#179 = ADVANCED_FACE ( 'NONE', ( #198 ), #130, .T. ) ;
#180 = DESIGN_CONTEXT ( 'detailed design', #187, 'design' ) ;
#181 = DIRECTION ( 'NONE',  ( 1.000000000000000000, 0.000000000000000000, 0.000000000000000000 ) ) ;
#182 = FACE_BOUND ( 'NONE', #214, .T. ) ;
#183 = EDGE_CURVE ( 'NONE', #234, #32, #171, .T. ) ;
#184 = ORIENTED_EDGE ( 'NONE', *, *, #99, .T. ) ;
#185 = APPROVAL ( #66, 'NEURÈENÝ' ) ;
#186 = AXIS2_PLACEMENT_3D ( 'NONE', #202, #16, #181 ) ;
#187 = APPLICATION_CONTEXT ( 'configuration controlled 3d designs of mechanical parts and assemblies' ) ;
#188 = FACE_OUTER_BOUND ( 'NONE', #174, .T. ) ;
#189 = CALENDAR_DATE ( 2023, 13, 2 ) ;
#190 = FACE_OUTER_BOUND ( 'NONE', #28, .T. ) ;
#191 = DATE_TIME_ROLE ( 'creation_date' ) ;
#192 =( NAMED_UNIT ( * ) PLANE_ANGLE_UNIT ( ) SI_UNIT ( $, .RADIAN. ) );
#193 = CARTESIAN_POINT ( 'NONE',  ( -16.00000000000000000, 0.000000000000000000, 10.00000000000000000 ) ) ;
#194 = CIRCLE ( 'NONE', #246, 12.50000000000000000 ) ;
#195 = CYLINDRICAL_SURFACE ( 'NONE', #224, 12.50000000000000000 ) ;
#196 = ORIENTED_EDGE ( 'NONE', *, *, #242, .F. ) ;
#197 = AXIS2_PLACEMENT_3D ( 'NONE', #200, #50, #15 ) ;
#198 = FACE_OUTER_BOUND ( 'NONE', #61, .T. ) ;
#199 = APPROVAL_DATE_TIME ( #31, #185 ) ;
#200 = CARTESIAN_POINT ( 'NONE',  ( 0.000000000000000000, 0.000000000000000000, 10.00000000000000000 ) ) ;
#201 = ADVANCED_FACE ( 'NONE', ( #216 ), #235, .F. ) ;
#202 = CARTESIAN_POINT ( 'NONE',  ( 0.000000000000000000, 0.000000000000000000, 125.0000000000000000 ) ) ;
#203 = ADVANCED_FACE ( 'NONE', ( #48 ), #141, .T. ) ;
#204 = ORGANIZATION ( 'NEURÈENÝ', 'NEURÈENÝ', '' ) ;
#205 = DIRECTION ( 'NONE',  ( 1.000000000000000000, 0.000000000000000000, -0.000000000000000000 ) ) ;
#206 = DIRECTION ( 'NONE',  ( 0.000000000000000000, 0.000000000000000000, 1.000000000000000000 ) ) ;
#207 = COORDINATED_UNIVERSAL_TIME_OFFSET ( 1, 0, .AHEAD. ) ;
#208 = ORIENTED_EDGE ( 'NONE', *, *, #242, .T. ) ;
#209 = CARTESIAN_POINT ( 'NONE',  ( 0.000000000000000000, 0.000000000000000000, 125.0000000000000000 ) ) ;
#210 = SHAPE_DEFINITION_REPRESENTATION ( #23, #89 ) ;
#211 = CARTESIAN_POINT ( 'NONE',  ( 0.000000000000000000, 0.000000000000000000, 125.0000000000000000 ) ) ;
#212 = CIRCLE ( 'NONE', #186, 12.50000000000000000 ) ;
#213 = APPROVAL_PERSON_ORGANIZATION ( #82, #25, #119 ) ;
#214 = EDGE_LOOP ( 'NONE', ( #241, #152 ) ) ;
#215 = APPROVAL_ROLE ( '' ) ;
#216 = FACE_OUTER_BOUND ( 'NONE', #134, .T. ) ;
#217 = ORIENTED_EDGE ( 'NONE', *, *, #154, .F. ) ;
#218 = CC_DESIGN_PERSON_AND_ORGANIZATION_ASSIGNMENT ( #65, #100, ( #107 ) ) ;
#219 = DIRECTION ( 'NONE',  ( 0.000000000000000000, 0.000000000000000000, 1.000000000000000000 ) ) ;
#220 = EDGE_LOOP ( 'NONE', ( #104, #158 ) ) ;
#221 = DIRECTION ( 'NONE',  ( 1.000000000000000000, 0.000000000000000000, 0.000000000000000000 ) ) ;
#222 = LOCAL_TIME ( 8, 52, 44.00000000000000000, #29 ) ;
#223 = CARTESIAN_POINT ( 'NONE',  ( 16.00000000000000000, 1.959434878635765131E-15, 0.000000000000000000 ) ) ;
#224 = AXIS2_PLACEMENT_3D ( 'NONE', #211, #145, #244 ) ;
#225 = PRODUCT_DEFINITION ( 'NEZNÁMÝ', '', #1, #180 ) ;
#226 = DIRECTION ( 'NONE',  ( 0.000000000000000000, 0.000000000000000000, 1.000000000000000000 ) ) ;
#227 = CC_DESIGN_APPROVAL ( #30, ( #1 ) ) ;
#228 = DIRECTION ( 'NONE',  ( -0.000000000000000000, -0.000000000000000000, -1.000000000000000000 ) ) ;
#229 = CARTESIAN_POINT ( 'NONE',  ( -16.00000000000000000, 0.000000000000000000, 10.00000000000000000 ) ) ;
#230 = AXIS2_PLACEMENT_3D ( 'NONE', #114, #4, #143 ) ;
#231 = LOCAL_TIME ( 8, 52, 44.00000000000000000, #254 ) ;
#232 = DATE_AND_TIME ( #245, #62 ) ;
#233 = DIRECTION ( 'NONE',  ( 0.000000000000000000, 0.000000000000000000, 1.000000000000000000 ) ) ;
#234 = VERTEX_POINT ( 'NONE', #223 ) ;
#235 = PLANE ( 'NONE',  #150 ) ;
#236 = VERTEX_POINT ( 'NONE', #93 ) ;
#237 = CARTESIAN_POINT ( 'NONE',  ( 0.000000000000000000, 0.000000000000000000, 125.0000000000000000 ) ) ;
#238 = APPLICATION_PROTOCOL_DEFINITION ( 'international standard', 'config_control_design', 1994, #68 ) ;
#239 = AXIS2_PLACEMENT_3D ( 'NONE', #250, #233, #132 ) ;
#240 = CARTESIAN_POINT ( 'NONE',  ( 0.000000000000000000, 0.000000000000000000, 0.000000000000000000 ) ) ;
#241 = ORIENTED_EDGE ( 'NONE', *, *, #38, .F. ) ;
#242 = EDGE_CURVE ( 'NONE', #22, #236, #139, .T. ) ;
#243 = PRODUCT_RELATED_PRODUCT_CATEGORY ( 'detail', '', ( #85 ) ) ;
#244 = DIRECTION ( 'NONE',  ( -1.000000000000000000, 0.000000000000000000, 0.000000000000000000 ) ) ;
#245 = CALENDAR_DATE ( 2023, 13, 2 ) ;
#246 = AXIS2_PLACEMENT_3D ( 'NONE', #237, #52, #53 ) ;
#247 = DIRECTION ( 'NONE',  ( 1.000000000000000000, 0.000000000000000000, 0.000000000000000000 ) ) ;
#248 = CC_DESIGN_APPROVAL ( #25, ( #107 ) ) ;
#249 = CC_DESIGN_PERSON_AND_ORGANIZATION_ASSIGNMENT ( #138, #33, ( #85 ) ) ;
#250 = CARTESIAN_POINT ( 'NONE',  ( 0.000000000000000000, 0.000000000000000000, 0.000000000000000000 ) ) ;
#251 = ORIENTED_EDGE ( 'NONE', *, *, #27, .T. ) ;
#252 = PERSON_AND_ORGANIZATION ( #37, #204 ) ;
#253 = ORIENTED_EDGE ( 'NONE', *, *, #27, .F. ) ;
#254 = COORDINATED_UNIVERSAL_TIME_OFFSET ( 1, 0, .AHEAD. ) ;
#255 = CC_DESIGN_PERSON_AND_ORGANIZATION_ASSIGNMENT ( #24, #88, ( #1 ) ) ;
ENDSEC;
END-ISO-10303-21;
