ISO-10303-21;
HEADER;
FILE_DESCRIPTION (( 'STEP AP203' ),
    '1' );
FILE_NAME ('af3d.STEP',
    '2023-01-31T14:31:27',
    ( '' ),
    ( '' ),
    'SwSTEP 2.0',
    'SolidWorks 2019',
    '' );
FILE_SCHEMA (( 'CONFIG_CONTROL_DESIGN' ));
ENDSEC;

DATA;
#1 = COORDINATED_UNIVERSAL_TIME_OFFSET ( 1, 0, .AHEAD. ) ;
#2 = EDGE_CURVE ( 'NONE', #184, #127, #239, .T. ) ;
#3 = DIRECTION ( 'NONE',  ( 0.000000000000000000, 0.000000000000000000, 1.000000000000000000 ) ) ;
#4 = DIRECTION ( 'NONE',  ( 1.000000000000000000, 0.000000000000000000, 0.000000000000000000 ) ) ;
#5 = SECURITY_CLASSIFICATION_LEVEL ( 'unclassified' ) ;
#6 = EDGE_LOOP ( 'NONE', ( #225, #125 ) ) ;
#7 = EDGE_CURVE ( 'NONE', #150, #165, #63, .T. ) ;
#8 = CALENDAR_DATE ( 2023, 31, 1 ) ;
#9 = ORIENTED_EDGE ( 'NONE', *, *, #102, .T. ) ;
#10 = AXIS2_PLACEMENT_3D ( 'NONE', #170, #105, #4 ) ;
#11 = VERTEX_POINT ( 'NONE', #197 ) ;
#12 = DIRECTION ( 'NONE',  ( 1.000000000000000000, 0.000000000000000000, 0.000000000000000000 ) ) ;
#13 = DIRECTION ( 'NONE',  ( 0.000000000000000000, 0.000000000000000000, 1.000000000000000000 ) ) ;
#14 = LINE ( 'NONE', #194, #45 ) ;
#15 = CARTESIAN_POINT ( 'NONE',  ( 1.250000000000000000, 1.530808498934191571E-16, 1.199999999999999956 ) ) ;
#16 = DIRECTION ( 'NONE',  ( 0.000000000000000000, 0.000000000000000000, 1.000000000000000000 ) ) ;
#17 = ADVANCED_FACE ( 'NONE', ( #22 ), #227, .T. ) ;
#18 = DIRECTION ( 'NONE',  ( -0.000000000000000000, -0.000000000000000000, -1.000000000000000000 ) ) ;
#19 = CARTESIAN_POINT ( 'NONE',  ( 1.250000000000000000, 1.530808498934191571E-16, 0.000000000000000000 ) ) ;
#20 = ADVANCED_FACE ( 'NONE', ( #209, #34 ), #69, .T. ) ;
#21 = PERSON_AND_ORGANIZATION ( #114, #135 ) ;
#22 = FACE_OUTER_BOUND ( 'NONE', #90, .T. ) ;
#23 = PRODUCT ( 'af3d', 'af3d', '', ( #179 ) ) ;
#24 = AXIS2_PLACEMENT_3D ( 'NONE', #109, #189, #249 ) ;
#25 = ORIENTED_EDGE ( 'NONE', *, *, #157, .T. ) ;
#26 = PRODUCT_RELATED_PRODUCT_CATEGORY ( 'detail', '', ( #23 ) ) ;
#27 = APPROVAL_ROLE ( '' ) ;
#28 = ORIENTED_EDGE ( 'NONE', *, *, #254, .T. ) ;
#29 = PERSON_AND_ORGANIZATION ( #114, #135 ) ;
#30 = EDGE_LOOP ( 'NONE', ( #106, #101, #47, #187 ) ) ;
#31 = SECURITY_CLASSIFICATION ( '', '', #5 ) ;
#32 = DIRECTION ( 'NONE',  ( 0.000000000000000000, 0.000000000000000000, 1.000000000000000000 ) ) ;
#33 = AXIS2_PLACEMENT_3D ( 'NONE', #73, #137, #156 ) ;
#34 = FACE_OUTER_BOUND ( 'NONE', #84, .T. ) ;
#35 = CARTESIAN_POINT ( 'NONE',  ( 0.000000000000000000, 0.000000000000000000, 0.000000000000000000 ) ) ;
#36 =( NAMED_UNIT ( * ) SI_UNIT ( $, .STERADIAN. ) SOLID_ANGLE_UNIT ( ) );
#37 = DIRECTION ( 'NONE',  ( 1.000000000000000000, 0.000000000000000000, 0.000000000000000000 ) ) ;
#38 = CC_DESIGN_PERSON_AND_ORGANIZATION_ASSIGNMENT ( #29, #48, ( #31 ) ) ;
#39 = DIRECTION ( 'NONE',  ( -0.000000000000000000, -0.000000000000000000, -1.000000000000000000 ) ) ;
#40 = ADVANCED_FACE ( 'NONE', ( #133 ), #250, .F. ) ;
#41 = UNCERTAINTY_MEASURE_WITH_UNIT (LENGTH_MEASURE( 1.000000000000000082E-05 ), #61, 'distance_accuracy_value', 'NONE');
#42 = PERSON_AND_ORGANIZATION ( #114, #135 ) ;
#43 = EDGE_LOOP ( 'NONE', ( #49, #171, #130, #83 ) ) ;
#44 = DATE_TIME_ROLE ( 'classification_date' ) ;
#45 = VECTOR ( 'NONE', #76, 1000.000000000000000 ) ;
#46 = PERSON_AND_ORGANIZATION ( #114, #135 ) ;
#47 = ORIENTED_EDGE ( 'NONE', *, *, #7, .T. ) ;
#48 = PERSON_AND_ORGANIZATION_ROLE ( 'classification_officer' ) ;
#49 = ORIENTED_EDGE ( 'NONE', *, *, #157, .F. ) ;
#50 = ORIENTED_EDGE ( 'NONE', *, *, #56, .F. ) ;
#51 = CC_DESIGN_DATE_AND_TIME_ASSIGNMENT ( #203, #44, ( #31 ) ) ;
#52 = CIRCLE ( 'NONE', #190, 0.5000000000000000000 ) ;
#53 = DIRECTION ( 'NONE',  ( 1.000000000000000000, 0.000000000000000000, -0.000000000000000000 ) ) ;
#54 = CC_DESIGN_SECURITY_CLASSIFICATION ( #31, ( #147 ) ) ;
#55 = CARTESIAN_POINT ( 'NONE',  ( 0.000000000000000000, 0.000000000000000000, 1.199999999999999956 ) ) ;
#56 = EDGE_CURVE ( 'NONE', #127, #184, #222, .T. ) ;
#57 = DIRECTION ( 'NONE',  ( -0.000000000000000000, -0.000000000000000000, -1.000000000000000000 ) ) ;
#58 = LOCAL_TIME ( 15, 31, 27.00000000000000000, #180 ) ;
#59 = AXIS2_PLACEMENT_3D ( 'NONE', #154, #229, #12 ) ;
#60 = CC_DESIGN_PERSON_AND_ORGANIZATION_ASSIGNMENT ( #21, #185, ( #147 ) ) ;
#61 =( LENGTH_UNIT ( ) NAMED_UNIT ( * ) SI_UNIT ( .MILLI., .METRE. ) );
#62 = PERSON_AND_ORGANIZATION ( #114, #135 ) ;
#63 = LINE ( 'NONE', #218, #138 ) ;
#64 = CC_DESIGN_PERSON_AND_ORGANIZATION_ASSIGNMENT ( #46, #85, ( #89 ) ) ;
#65 = DATE_AND_TIME ( #241, #119 ) ;
#66 = APPROVAL_ROLE ( '' ) ;
#67 = ORIENTED_EDGE ( 'NONE', *, *, #102, .F. ) ;
#68 = DIRECTION ( 'NONE',  ( -1.000000000000000000, 0.000000000000000000, 0.000000000000000000 ) ) ;
#69 = PLANE ( 'NONE',  #117 ) ;
#70 = EDGE_CURVE ( 'NONE', #11, #146, #103, .T. ) ;
#71 = DIRECTION ( 'NONE',  ( -1.000000000000000000, 0.000000000000000000, 0.000000000000000000 ) ) ;
#72 = MANIFOLD_SOLID_BREP ( 'Pøidat vysunutím3', #158 ) ;
#73 = CARTESIAN_POINT ( 'NONE',  ( 0.000000000000000000, 0.000000000000000000, 100.0000000000000000 ) ) ;
#74 = APPROVAL_PERSON_ORGANIZATION ( #42, #94, #27 ) ;
#75 = APPROVAL ( #166, 'NEURÈENÝ' ) ;
#76 = DIRECTION ( 'NONE',  ( -0.000000000000000000, -0.000000000000000000, -1.000000000000000000 ) ) ;
#77 = CC_DESIGN_APPROVAL ( #215, ( #31 ) ) ;
#78 = PERSON_AND_ORGANIZATION ( #114, #135 ) ;
#79 = ADVANCED_BREP_SHAPE_REPRESENTATION ( 'af3d', ( #72, #10 ), #122 ) ;
#80 = ORIENTED_EDGE ( 'NONE', *, *, #70, .T. ) ;
#81 = VECTOR ( 'NONE', #39, 1000.000000000000000 ) ;
#82 = CALENDAR_DATE ( 2023, 31, 1 ) ;
#83 = ORIENTED_EDGE ( 'NONE', *, *, #7, .F. ) ;
#84 = EDGE_LOOP ( 'NONE', ( #80, #151 ) ) ;
#85 = PERSON_AND_ORGANIZATION_ROLE ( 'creator' ) ;
#86 = EDGE_LOOP ( 'NONE', ( #67, #247, #28, #224 ) ) ;
#87 = AXIS2_PLACEMENT_3D ( 'NONE', #233, #235, #216 ) ;
#88 = COORDINATED_UNIVERSAL_TIME_OFFSET ( 1, 0, .AHEAD. ) ;
#89 = PRODUCT_DEFINITION ( 'NEZNÁMÝ', '', #147, #193 ) ;
#90 = EDGE_LOOP ( 'NONE', ( #242, #9, #108, #182 ) ) ;
#91 = CARTESIAN_POINT ( 'NONE',  ( -1.250000000000000000, 0.000000000000000000, 0.000000000000000000 ) ) ;
#92 = LINE ( 'NONE', #136, #113 ) ;
#93 = CARTESIAN_POINT ( 'NONE',  ( 0.000000000000000000, 0.000000000000000000, 1.199999999999999956 ) ) ;
#94 = APPROVAL ( #200, 'NEURÈENÝ' ) ;
#95 = FACE_OUTER_BOUND ( 'NONE', #30, .T. ) ;
#96 = APPLICATION_CONTEXT ( 'configuration controlled 3d designs of mechanical parts and assemblies' ) ;
#97 = CARTESIAN_POINT ( 'NONE',  ( 0.5000000000000000000, 6.123233995736766036E-17, 100.0000000000000000 ) ) ;
#98 = CARTESIAN_POINT ( 'NONE',  ( 0.000000000000000000, 0.000000000000000000, 1.199999999999999956 ) ) ;
#99 = CARTESIAN_POINT ( 'NONE',  ( 0.5000000000000000000, 6.123233995736766036E-17, 100.0000000000000000 ) ) ;
#100 = COORDINATED_UNIVERSAL_TIME_OFFSET ( 1, 0, .AHEAD. ) ;
#101 = ORIENTED_EDGE ( 'NONE', *, *, #228, .F. ) ;
#102 = EDGE_CURVE ( 'NONE', #146, #184, #92, .T. ) ;
#103 = CIRCLE ( 'NONE', #59, 1.250000000000000000 ) ;
#104 = DATE_AND_TIME ( #8, #112 ) ;
#105 = DIRECTION ( 'NONE',  ( 0.000000000000000000, 0.000000000000000000, 1.000000000000000000 ) ) ;
#106 = ORIENTED_EDGE ( 'NONE', *, *, #208, .F. ) ;
#107 = APPROVAL_DATE_TIME ( #65, #215 ) ;
#108 = ORIENTED_EDGE ( 'NONE', *, *, #2, .T. ) ;
#109 = CARTESIAN_POINT ( 'NONE',  ( 0.000000000000000000, 0.000000000000000000, 100.0000000000000000 ) ) ;
#110 = CARTESIAN_POINT ( 'NONE',  ( 0.000000000000000000, 0.000000000000000000, 1.199999999999999956 ) ) ;
#111 = ADVANCED_FACE ( 'NONE', ( #175 ), #231, .T. ) ;
#112 = LOCAL_TIME ( 15, 31, 27.00000000000000000, #1 ) ;
#113 = VECTOR ( 'NONE', #210, 1000.000000000000000 ) ;
#114 = PERSON ( 'NEURÈENÝ', 'NEURÈENÝ', 'NEURÈENÝ', ('NEURÈENÝ'), ('NEURÈENÝ'), ('NEURÈENÝ') ) ;
#115 =( NAMED_UNIT ( * ) PLANE_ANGLE_UNIT ( ) SI_UNIT ( $, .RADIAN. ) );
#116 = DIRECTION ( 'NONE',  ( 0.000000000000000000, 0.000000000000000000, 1.000000000000000000 ) ) ;
#117 = AXIS2_PLACEMENT_3D ( 'NONE', #93, #176, #152 ) ;
#118 = EDGE_CURVE ( 'NONE', #165, #201, #132, .T. ) ;
#119 = LOCAL_TIME ( 15, 31, 27.00000000000000000, #88 ) ;
#120 = DIRECTION ( 'NONE',  ( 0.000000000000000000, 0.000000000000000000, 1.000000000000000000 ) ) ;
#121 = CARTESIAN_POINT ( 'NONE',  ( 0.000000000000000000, 0.000000000000000000, 1.199999999999999956 ) ) ;
#122 =( GEOMETRIC_REPRESENTATION_CONTEXT ( 3 ) GLOBAL_UNCERTAINTY_ASSIGNED_CONTEXT ( ( #41 ) ) GLOBAL_UNIT_ASSIGNED_CONTEXT ( ( #61, #115, #36 ) ) REPRESENTATION_CONTEXT ( 'NONE', 'WORKASPACE' ) );
#123 = CC_DESIGN_DATE_AND_TIME_ASSIGNMENT ( #104, #160, ( #89 ) ) ;
#124 = DIRECTION ( 'NONE',  ( -0.000000000000000000, -0.000000000000000000, -1.000000000000000000 ) ) ;
#125 = ORIENTED_EDGE ( 'NONE', *, *, #142, .F. ) ;
#126 = PERSON_AND_ORGANIZATION_ROLE ( 'design_owner' ) ;
#127 = VERTEX_POINT ( 'NONE', #91 ) ;
#128 = EDGE_CURVE ( 'NONE', #146, #11, #169, .T. ) ;
#129 = PERSON_AND_ORGANIZATION ( #114, #135 ) ;
#130 = ORIENTED_EDGE ( 'NONE', *, *, #142, .T. ) ;
#131 = CARTESIAN_POINT ( 'NONE',  ( 0.000000000000000000, 0.000000000000000000, 0.000000000000000000 ) ) ;
#132 = CIRCLE ( 'NONE', #199, 0.5000000000000000000 ) ;
#133 = FACE_OUTER_BOUND ( 'NONE', #220, .T. ) ;
#134 = ADVANCED_FACE ( 'NONE', ( #139 ), #177, .T. ) ;
#135 = ORGANIZATION ( 'NEURÈENÝ', 'NEURÈENÝ', '' ) ;
#136 = CARTESIAN_POINT ( 'NONE',  ( 1.250000000000000000, 1.530808498934191571E-16, 1.199999999999999956 ) ) ;
#137 = DIRECTION ( 'NONE',  ( -0.000000000000000000, -0.000000000000000000, -1.000000000000000000 ) ) ;
#138 = VECTOR ( 'NONE', #124, 1000.000000000000000 ) ;
#139 = FACE_OUTER_BOUND ( 'NONE', #86, .T. ) ;
#140 = CARTESIAN_POINT ( 'NONE',  ( -0.5000000000000000000, 0.000000000000000000, 1.199999999999999956 ) ) ;
#141 = SHAPE_DEFINITION_REPRESENTATION ( #202, #79 ) ;
#142 = EDGE_CURVE ( 'NONE', #201, #165, #195, .T. ) ;
#143 = PERSON_AND_ORGANIZATION_ROLE ( 'creator' ) ;
#144 = EDGE_LOOP ( 'NONE', ( #204, #25 ) ) ;
#145 = PERSON_AND_ORGANIZATION ( #114, #135 ) ;
#146 = VERTEX_POINT ( 'NONE', #15 ) ;
#147 = PRODUCT_DEFINITION_FORMATION_WITH_SPECIFIED_SOURCE ( 'LIBOVOLNÝ', '', #23, .NOT_KNOWN. ) ;
#148 = AXIS2_PLACEMENT_3D ( 'NONE', #98, #116, #37 ) ;
#149 = DATE_AND_TIME ( #198, #164 ) ;
#150 = VERTEX_POINT ( 'NONE', #252 ) ;
#151 = ORIENTED_EDGE ( 'NONE', *, *, #128, .T. ) ;
#152 = DIRECTION ( 'NONE',  ( 1.000000000000000000, 0.000000000000000000, -0.000000000000000000 ) ) ;
#153 = DIRECTION ( 'NONE',  ( 1.000000000000000000, 0.000000000000000000, 0.000000000000000000 ) ) ;
#154 = CARTESIAN_POINT ( 'NONE',  ( 0.000000000000000000, 0.000000000000000000, 1.199999999999999956 ) ) ;
#155 = CARTESIAN_POINT ( 'NONE',  ( 0.5000000000000000000, 6.123233995736766036E-17, 1.199999999999999956 ) ) ;
#156 = DIRECTION ( 'NONE',  ( -1.000000000000000000, 0.000000000000000000, 0.000000000000000000 ) ) ;
#157 = EDGE_CURVE ( 'NONE', #168, #150, #52, .T. ) ;
#158 = CLOSED_SHELL ( 'NONE', ( #251, #17, #134, #20, #40, #212, #111 ) ) ;
#159 = CARTESIAN_POINT ( 'NONE',  ( 0.000000000000000000, 0.000000000000000000, 100.0000000000000000 ) ) ;
#160 = DATE_TIME_ROLE ( 'creation_date' ) ;
#161 = AXIS2_PLACEMENT_3D ( 'NONE', #121, #191, #211 ) ;
#162 = AXIS2_PLACEMENT_3D ( 'NONE', #35, #32, #153 ) ;
#163 = APPROVAL_ROLE ( '' ) ;
#164 = LOCAL_TIME ( 15, 31, 27.00000000000000000, #238 ) ;
#165 = VERTEX_POINT ( 'NONE', #140 ) ;
#166 = APPROVAL_STATUS ( 'not_yet_approved' ) ;
#167 = CIRCLE ( 'NONE', #181, 0.5000000000000000000 ) ;
#168 = VERTEX_POINT ( 'NONE', #99 ) ;
#169 = CIRCLE ( 'NONE', #148, 1.250000000000000000 ) ;
#170 = CARTESIAN_POINT ( 'NONE',  ( 0.000000000000000000, 0.000000000000000000, 0.000000000000000000 ) ) ;
#171 = ORIENTED_EDGE ( 'NONE', *, *, #208, .T. ) ;
#172 = APPROVAL_PERSON_ORGANIZATION ( #129, #215, #163 ) ;
#173 = CC_DESIGN_PERSON_AND_ORGANIZATION_ASSIGNMENT ( #145, #126, ( #23 ) ) ;
#174 = CARTESIAN_POINT ( 'NONE',  ( 0.000000000000000000, 0.000000000000000000, 0.000000000000000000 ) ) ;
#175 = FACE_OUTER_BOUND ( 'NONE', #144, .T. ) ;
#176 = DIRECTION ( 'NONE',  ( 0.000000000000000000, 0.000000000000000000, 1.000000000000000000 ) ) ;
#177 = CYLINDRICAL_SURFACE ( 'NONE', #237, 1.250000000000000000 ) ;
#178 = CYLINDRICAL_SURFACE ( 'NONE', #33, 0.5000000000000000000 ) ;
#179 = MECHANICAL_CONTEXT ( 'NONE', #96, 'mechanical' ) ;
#180 = COORDINATED_UNIVERSAL_TIME_OFFSET ( 1, 0, .AHEAD. ) ;
#181 = AXIS2_PLACEMENT_3D ( 'NONE', #159, #16, #255 ) ;
#182 = ORIENTED_EDGE ( 'NONE', *, *, #254, .F. ) ;
#183 = DATE_AND_TIME ( #246, #221 ) ;
#184 = VERTEX_POINT ( 'NONE', #19 ) ;
#185 = PERSON_AND_ORGANIZATION_ROLE ( 'design_supplier' ) ;
#186 = APPLICATION_CONTEXT ( 'configuration controlled 3d designs of mechanical parts and assemblies' ) ;
#187 = ORIENTED_EDGE ( 'NONE', *, *, #118, .T. ) ;
#188 = DIRECTION ( 'NONE',  ( 1.000000000000000000, 0.000000000000000000, 0.000000000000000000 ) ) ;
#189 = DIRECTION ( 'NONE',  ( 0.000000000000000000, 0.000000000000000000, 1.000000000000000000 ) ) ;
#190 = AXIS2_PLACEMENT_3D ( 'NONE', #232, #120, #236 ) ;
#191 = DIRECTION ( 'NONE',  ( 0.000000000000000000, 0.000000000000000000, 1.000000000000000000 ) ) ;
#192 = FACE_OUTER_BOUND ( 'NONE', #43, .T. ) ;
#193 = DESIGN_CONTEXT ( 'detailed design', #186, 'design' ) ;
#194 = CARTESIAN_POINT ( 'NONE',  ( -1.250000000000000000, 0.000000000000000000, 1.199999999999999956 ) ) ;
#195 = CIRCLE ( 'NONE', #161, 0.5000000000000000000 ) ;
#196 = APPLICATION_PROTOCOL_DEFINITION ( 'international standard', 'config_control_design', 1994, #96 ) ;
#197 = CARTESIAN_POINT ( 'NONE',  ( -1.250000000000000000, 0.000000000000000000, 1.199999999999999956 ) ) ;
#198 = CALENDAR_DATE ( 2023, 31, 1 ) ;
#199 = AXIS2_PLACEMENT_3D ( 'NONE', #55, #13, #188 ) ;
#200 = APPROVAL_STATUS ( 'not_yet_approved' ) ;
#201 = VERTEX_POINT ( 'NONE', #155 ) ;
#202 = PRODUCT_DEFINITION_SHAPE ( 'NONE', 'NONE',  #89 ) ;
#203 = DATE_AND_TIME ( #82, #58 ) ;
#204 = ORIENTED_EDGE ( 'NONE', *, *, #228, .T. ) ;
#205 = CC_DESIGN_PERSON_AND_ORGANIZATION_ASSIGNMENT ( #62, #143, ( #147 ) ) ;
#206 = DIRECTION ( 'NONE',  ( 0.000000000000000000, 0.000000000000000000, 1.000000000000000000 ) ) ;
#207 = CC_DESIGN_APPROVAL ( #75, ( #147 ) ) ;
#208 = EDGE_CURVE ( 'NONE', #168, #201, #253, .T. ) ;
#209 = FACE_BOUND ( 'NONE', #6, .T. ) ;
#210 = DIRECTION ( 'NONE',  ( -0.000000000000000000, -0.000000000000000000, -1.000000000000000000 ) ) ;
#211 = DIRECTION ( 'NONE',  ( 1.000000000000000000, 0.000000000000000000, 0.000000000000000000 ) ) ;
#212 = ADVANCED_FACE ( 'NONE', ( #95 ), #178, .T. ) ;
#213 = CYLINDRICAL_SURFACE ( 'NONE', #87, 0.5000000000000000000 ) ;
#214 = CARTESIAN_POINT ( 'NONE',  ( 0.000000000000000000, 0.000000000000000000, 1.199999999999999956 ) ) ;
#215 = APPROVAL ( #217, 'NEURÈENÝ' ) ;
#216 = DIRECTION ( 'NONE',  ( -1.000000000000000000, 0.000000000000000000, 0.000000000000000000 ) ) ;
#217 = APPROVAL_STATUS ( 'not_yet_approved' ) ;
#218 = CARTESIAN_POINT ( 'NONE',  ( -0.5000000000000000000, 0.000000000000000000, 100.0000000000000000 ) ) ;
#219 = APPROVAL_PERSON_ORGANIZATION ( #78, #75, #66 ) ;
#220 = EDGE_LOOP ( 'NONE', ( #50, #245 ) ) ;
#221 = LOCAL_TIME ( 15, 31, 27.00000000000000000, #100 ) ;
#222 = CIRCLE ( 'NONE', #162, 1.250000000000000000 ) ;
#223 = APPROVAL_DATE_TIME ( #149, #75 ) ;
#224 = ORIENTED_EDGE ( 'NONE', *, *, #56, .T. ) ;
#225 = ORIENTED_EDGE ( 'NONE', *, *, #118, .F. ) ;
#226 = AXIS2_PLACEMENT_3D ( 'NONE', #110, #57, #68 ) ;
#227 = CYLINDRICAL_SURFACE ( 'NONE', #226, 1.250000000000000000 ) ;
#228 = EDGE_CURVE ( 'NONE', #150, #168, #167, .T. ) ;
#229 = DIRECTION ( 'NONE',  ( 0.000000000000000000, 0.000000000000000000, 1.000000000000000000 ) ) ;
#230 = CC_DESIGN_APPROVAL ( #94, ( #89 ) ) ;
#231 = PLANE ( 'NONE',  #24 ) ;
#232 = CARTESIAN_POINT ( 'NONE',  ( 0.000000000000000000, 0.000000000000000000, 100.0000000000000000 ) ) ;
#233 = CARTESIAN_POINT ( 'NONE',  ( 0.000000000000000000, 0.000000000000000000, 100.0000000000000000 ) ) ;
#234 = AXIS2_PLACEMENT_3D ( 'NONE', #174, #206, #53 ) ;
#235 = DIRECTION ( 'NONE',  ( -0.000000000000000000, -0.000000000000000000, -1.000000000000000000 ) ) ;
#236 = DIRECTION ( 'NONE',  ( 1.000000000000000000, 0.000000000000000000, 0.000000000000000000 ) ) ;
#237 = AXIS2_PLACEMENT_3D ( 'NONE', #214, #18, #71 ) ;
#238 = COORDINATED_UNIVERSAL_TIME_OFFSET ( 1, 0, .AHEAD. ) ;
#239 = CIRCLE ( 'NONE', #248, 1.250000000000000000 ) ;
#240 = DIRECTION ( 'NONE',  ( 1.000000000000000000, 0.000000000000000000, 0.000000000000000000 ) ) ;
#241 = CALENDAR_DATE ( 2023, 31, 1 ) ;
#242 = ORIENTED_EDGE ( 'NONE', *, *, #128, .F. ) ;
#243 = APPROVAL_DATE_TIME ( #183, #94 ) ;
#244 = APPLICATION_PROTOCOL_DEFINITION ( 'international standard', 'config_control_design', 1994, #186 ) ;
#245 = ORIENTED_EDGE ( 'NONE', *, *, #2, .F. ) ;
#246 = CALENDAR_DATE ( 2023, 31, 1 ) ;
#247 = ORIENTED_EDGE ( 'NONE', *, *, #70, .F. ) ;
#248 = AXIS2_PLACEMENT_3D ( 'NONE', #131, #3, #240 ) ;
#249 = DIRECTION ( 'NONE',  ( 1.000000000000000000, 0.000000000000000000, -0.000000000000000000 ) ) ;
#250 = PLANE ( 'NONE',  #234 ) ;
#251 = ADVANCED_FACE ( 'NONE', ( #192 ), #213, .T. ) ;
#252 = CARTESIAN_POINT ( 'NONE',  ( -0.5000000000000000000, 0.000000000000000000, 100.0000000000000000 ) ) ;
#253 = LINE ( 'NONE', #97, #81 ) ;
#254 = EDGE_CURVE ( 'NONE', #11, #127, #14, .T. ) ;
#255 = DIRECTION ( 'NONE',  ( 1.000000000000000000, 0.000000000000000000, 0.000000000000000000 ) ) ;
ENDSEC;
END-ISO-10303-21;
