ISO-10303-21;
HEADER;
FILE_DESCRIPTION (( 'STEP AP203' ),
    '1' );
FILE_NAME ('f5d7.STEP',
    '2023-01-31T14:49:26',
    ( '' ),
    ( '' ),
    'SwSTEP 2.0',
    'SolidWorks 2019',
    '' );
FILE_SCHEMA (( 'CONFIG_CONTROL_DESIGN' ));
ENDSEC;

DATA;
#1 = APPROVAL ( #94, 'NEURÈENÝ' ) ;
#2 = AXIS2_PLACEMENT_3D ( 'NONE', #214, #16, #251 ) ;
#3 = CIRCLE ( 'NONE', #40, 0.5000000000000000000 ) ;
#4 = LOCAL_TIME ( 15, 49, 26.00000000000000000, #171 ) ;
#5 = ORIENTED_EDGE ( 'NONE', *, *, #240, .T. ) ;
#6 = CYLINDRICAL_SURFACE ( 'NONE', #161, 1.250000000000000000 ) ;
#7 = CC_DESIGN_PERSON_AND_ORGANIZATION_ASSIGNMENT ( #148, #76, ( #180 ) ) ;
#8 = CIRCLE ( 'NONE', #45, 0.5000000000000000000 ) ;
#9 = FACE_OUTER_BOUND ( 'NONE', #75, .T. ) ;
#10 = DIRECTION ( 'NONE',  ( 1.000000000000000000, 0.000000000000000000, 0.000000000000000000 ) ) ;
#11 = DIRECTION ( 'NONE',  ( 1.000000000000000000, 0.000000000000000000, 0.000000000000000000 ) ) ;
#12 = VERTEX_POINT ( 'NONE', #176 ) ;
#13 = PRODUCT_DEFINITION_FORMATION_WITH_SPECIFIED_SOURCE ( 'LIBOVOLNÝ', '', #180, .NOT_KNOWN. ) ;
#14 = DATE_TIME_ROLE ( 'classification_date' ) ;
#15 = VERTEX_POINT ( 'NONE', #19 ) ;
#16 = DIRECTION ( 'NONE',  ( 0.000000000000000000, 0.000000000000000000, 1.000000000000000000 ) ) ;
#17 = APPROVAL ( #78, 'NEURÈENÝ' ) ;
#18 = CARTESIAN_POINT ( 'NONE',  ( 0.000000000000000000, 0.000000000000000000, 0.000000000000000000 ) ) ;
#19 = CARTESIAN_POINT ( 'NONE',  ( 0.5000000000000000000, 6.123233995736766036E-17, 100.0000000000000000 ) ) ;
#20 = ORIENTED_EDGE ( 'NONE', *, *, #108, .F. ) ;
#21 = CIRCLE ( 'NONE', #200, 1.250000000000000000 ) ;
#22 = AXIS2_PLACEMENT_3D ( 'NONE', #221, #245, #201 ) ;
#23 = CC_DESIGN_SECURITY_CLASSIFICATION ( #228, ( #13 ) ) ;
#24 = EDGE_CURVE ( 'NONE', #219, #12, #241, .T. ) ;
#25 = ORIENTED_EDGE ( 'NONE', *, *, #108, .T. ) ;
#26 = CIRCLE ( 'NONE', #121, 0.5000000000000000000 ) ;
#27 = CC_DESIGN_APPROVAL ( #65, ( #234 ) ) ;
#28 = DIRECTION ( 'NONE',  ( -0.000000000000000000, -0.000000000000000000, -1.000000000000000000 ) ) ;
#29 = LINE ( 'NONE', #184, #205 ) ;
#30 = FACE_OUTER_BOUND ( 'NONE', #122, .T. ) ;
#31 =( NAMED_UNIT ( * ) SI_UNIT ( $, .STERADIAN. ) SOLID_ANGLE_UNIT ( ) );
#32 = CARTESIAN_POINT ( 'NONE',  ( 0.000000000000000000, 0.000000000000000000, 100.0000000000000000 ) ) ;
#33 = VECTOR ( 'NONE', #71, 1000.000000000000000 ) ;
#34 = EDGE_CURVE ( 'NONE', #41, #115, #79, .T. ) ;
#35 = COORDINATED_UNIVERSAL_TIME_OFFSET ( 1, 0, .AHEAD. ) ;
#36 = PERSON_AND_ORGANIZATION_ROLE ( 'creator' ) ;
#37 = DIRECTION ( 'NONE',  ( 0.000000000000000000, 0.000000000000000000, 1.000000000000000000 ) ) ;
#38 = EDGE_CURVE ( 'NONE', #103, #41, #97, .T. ) ;
#39 = CARTESIAN_POINT ( 'NONE',  ( 0.000000000000000000, 0.000000000000000000, 0.000000000000000000 ) ) ;
#40 = AXIS2_PLACEMENT_3D ( 'NONE', #32, #179, #238 ) ;
#41 = VERTEX_POINT ( 'NONE', #135 ) ;
#42 = UNCERTAINTY_MEASURE_WITH_UNIT (LENGTH_MEASURE( 1.000000000000000082E-05 ), #181, 'distance_accuracy_value', 'NONE');
#43 = ORIENTED_EDGE ( 'NONE', *, *, #24, .F. ) ;
#44 = CC_DESIGN_DATE_AND_TIME_ASSIGNMENT ( #93, #110, ( #234 ) ) ;
#45 = AXIS2_PLACEMENT_3D ( 'NONE', #68, #185, #11 ) ;
#46 = CC_DESIGN_APPROVAL ( #17, ( #228 ) ) ;
#47 = ORIENTED_EDGE ( 'NONE', *, *, #246, .F. ) ;
#48 = EDGE_CURVE ( 'NONE', #15, #235, #26, .T. ) ;
#49 = DIRECTION ( 'NONE',  ( -0.000000000000000000, -0.000000000000000000, -1.000000000000000000 ) ) ;
#50 = CARTESIAN_POINT ( 'NONE',  ( -1.250000000000000000, 0.000000000000000000, 0.000000000000000000 ) ) ;
#51 =( NAMED_UNIT ( * ) PLANE_ANGLE_UNIT ( ) SI_UNIT ( $, .RADIAN. ) );
#52 = CC_DESIGN_PERSON_AND_ORGANIZATION_ASSIGNMENT ( #231, #36, ( #234 ) ) ;
#53 = DIRECTION ( 'NONE',  ( -1.000000000000000000, 0.000000000000000000, 0.000000000000000000 ) ) ;
#54 = CALENDAR_DATE ( 2023, 31, 1 ) ;
#55 = ADVANCED_FACE ( 'NONE', ( #191, #96 ), #173, .T. ) ;
#56 = PERSON_AND_ORGANIZATION_ROLE ( 'design_supplier' ) ;
#57 = APPROVAL_STATUS ( 'not_yet_approved' ) ;
#58 = CARTESIAN_POINT ( 'NONE',  ( -1.250000000000000000, 0.000000000000000000, 1.199999999999999956 ) ) ;
#59 = CC_DESIGN_DATE_AND_TIME_ASSIGNMENT ( #188, #14, ( #228 ) ) ;
#60 = EDGE_LOOP ( 'NONE', ( #140, #153 ) ) ;
#61 = CALENDAR_DATE ( 2023, 31, 1 ) ;
#62 = EDGE_LOOP ( 'NONE', ( #255, #151 ) ) ;
#63 = CARTESIAN_POINT ( 'NONE',  ( 0.000000000000000000, 0.000000000000000000, 1.199999999999999956 ) ) ;
#64 = EDGE_LOOP ( 'NONE', ( #43, #118 ) ) ;
#65 = APPROVAL ( #57, 'NEURÈENÝ' ) ;
#66 = CYLINDRICAL_SURFACE ( 'NONE', #22, 0.5000000000000000000 ) ;
#67 = CARTESIAN_POINT ( 'NONE',  ( 1.250000000000000000, 1.530808498934191571E-16, 1.199999999999999956 ) ) ;
#68 = CARTESIAN_POINT ( 'NONE',  ( 0.000000000000000000, 0.000000000000000000, 1.199999999999999956 ) ) ;
#69 = DIRECTION ( 'NONE',  ( -1.000000000000000000, 0.000000000000000000, 0.000000000000000000 ) ) ;
#70 = PERSON ( 'NEURÈENÝ', 'NEURÈENÝ', 'NEURÈENÝ', ('NEURÈENÝ'), ('NEURÈENÝ'), ('NEURÈENÝ') ) ;
#71 = DIRECTION ( 'NONE',  ( -0.000000000000000000, -0.000000000000000000, -1.000000000000000000 ) ) ;
#72 = PERSON_AND_ORGANIZATION ( #70, #242 ) ;
#73 = AXIS2_PLACEMENT_3D ( 'NONE', #147, #28, #69 ) ;
#74 = DIRECTION ( 'NONE',  ( 1.000000000000000000, 0.000000000000000000, 0.000000000000000000 ) ) ;
#75 = EDGE_LOOP ( 'NONE', ( #47, #98, #25, #216 ) ) ;
#76 = PERSON_AND_ORGANIZATION_ROLE ( 'design_owner' ) ;
#77 = DIRECTION ( 'NONE',  ( 1.000000000000000000, 0.000000000000000000, 0.000000000000000000 ) ) ;
#78 = APPROVAL_STATUS ( 'not_yet_approved' ) ;
#79 = LINE ( 'NONE', #58, #143 ) ;
#80 = LOCAL_TIME ( 15, 49, 26.00000000000000000, #35 ) ;
#81 = EDGE_CURVE ( 'NONE', #41, #103, #196, .T. ) ;
#82 = ORIENTED_EDGE ( 'NONE', *, *, #137, .T. ) ;
#83 = DIRECTION ( 'NONE',  ( 1.000000000000000000, 0.000000000000000000, 0.000000000000000000 ) ) ;
#84 = FACE_OUTER_BOUND ( 'NONE', #236, .T. ) ;
#85 = FACE_OUTER_BOUND ( 'NONE', #60, .T. ) ;
#86 = EDGE_CURVE ( 'NONE', #178, #115, #21, .T. ) ;
#87 = APPROVAL_PERSON_ORGANIZATION ( #169, #65, #152 ) ;
#88 = DIRECTION ( 'NONE',  ( 0.000000000000000000, 0.000000000000000000, 1.000000000000000000 ) ) ;
#89 = LINE ( 'NONE', #67, #111 ) ;
#90 = EDGE_CURVE ( 'NONE', #12, #219, #8, .T. ) ;
#91 = FACE_OUTER_BOUND ( 'NONE', #170, .T. ) ;
#92 = CIRCLE ( 'NONE', #127, 1.250000000000000000 ) ;
#93 = DATE_AND_TIME ( #61, #182 ) ;
#94 = APPROVAL_STATUS ( 'not_yet_approved' ) ;
#95 = PERSON_AND_ORGANIZATION ( #70, #242 ) ;
#96 = FACE_OUTER_BOUND ( 'NONE', #62, .T. ) ;
#97 = CIRCLE ( 'NONE', #150, 1.250000000000000000 ) ;
#98 = ORIENTED_EDGE ( 'NONE', *, *, #137, .F. ) ;
#99 = DIRECTION ( 'NONE',  ( 0.000000000000000000, 0.000000000000000000, 1.000000000000000000 ) ) ;
#100 = DIRECTION ( 'NONE',  ( 0.000000000000000000, 0.000000000000000000, 1.000000000000000000 ) ) ;
#101 = AXIS2_PLACEMENT_3D ( 'NONE', #63, #232, #175 ) ;
#102 = ADVANCED_FACE ( 'NONE', ( #30 ), #6, .T. ) ;
#103 = VERTEX_POINT ( 'NONE', #167 ) ;
#104 = DIRECTION ( 'NONE',  ( 1.000000000000000000, 0.000000000000000000, -0.000000000000000000 ) ) ;
#105 = EDGE_CURVE ( 'NONE', #115, #178, #92, .T. ) ;
#106 = PRODUCT_DEFINITION_SHAPE ( 'NONE', 'NONE',  #234 ) ;
#107 = CARTESIAN_POINT ( 'NONE',  ( -0.5000000000000000000, 0.000000000000000000, 100.0000000000000000 ) ) ;
#108 = EDGE_CURVE ( 'NONE', #235, #219, #123, .T. ) ;
#109 = CARTESIAN_POINT ( 'NONE',  ( 0.000000000000000000, 0.000000000000000000, 0.000000000000000000 ) ) ;
#110 = DATE_TIME_ROLE ( 'creation_date' ) ;
#111 = VECTOR ( 'NONE', #144, 1000.000000000000000 ) ;
#112 = CALENDAR_DATE ( 2023, 31, 1 ) ;
#113 = SECURITY_CLASSIFICATION_LEVEL ( 'unclassified' ) ;
#114 = ADVANCED_FACE ( 'NONE', ( #91 ), #66, .T. ) ;
#115 = VERTEX_POINT ( 'NONE', #50 ) ;
#116 = ORIENTED_EDGE ( 'NONE', *, *, #240, .F. ) ;
#117 = ORIENTED_EDGE ( 'NONE', *, *, #34, .T. ) ;
#118 = ORIENTED_EDGE ( 'NONE', *, *, #90, .F. ) ;
#119 = MANIFOLD_SOLID_BREP ( 'Pøidat vysunutím3', #208 ) ;
#120 = CALENDAR_DATE ( 2023, 31, 1 ) ;
#121 = AXIS2_PLACEMENT_3D ( 'NONE', #174, #37, #155 ) ;
#122 = EDGE_LOOP ( 'NONE', ( #194, #5, #139, #199 ) ) ;
#123 = LINE ( 'NONE', #126, #33 ) ;
#124 = CC_DESIGN_PERSON_AND_ORGANIZATION_ASSIGNMENT ( #149, #56, ( #13 ) ) ;
#125 = PLANE ( 'NONE',  #158 ) ;
#126 = CARTESIAN_POINT ( 'NONE',  ( -0.5000000000000000000, 0.000000000000000000, 100.0000000000000000 ) ) ;
#127 = AXIS2_PLACEMENT_3D ( 'NONE', #109, #88, #10 ) ;
#128 = DIRECTION ( 'NONE',  ( -0.000000000000000000, -0.000000000000000000, -1.000000000000000000 ) ) ;
#129 = CC_DESIGN_PERSON_AND_ORGANIZATION_ASSIGNMENT ( #72, #229, ( #13 ) ) ;
#130 = DIRECTION ( 'NONE',  ( 0.000000000000000000, 0.000000000000000000, 1.000000000000000000 ) ) ;
#131 = APPLICATION_PROTOCOL_DEFINITION ( 'international standard', 'config_control_design', 1994, #192 ) ;
#132 = APPLICATION_PROTOCOL_DEFINITION ( 'international standard', 'config_control_design', 1994, #187 ) ;
#133 = APPROVAL_DATE_TIME ( #211, #65 ) ;
#134 = ORIENTED_EDGE ( 'NONE', *, *, #246, .T. ) ;
#135 = CARTESIAN_POINT ( 'NONE',  ( -1.250000000000000000, 0.000000000000000000, 1.199999999999999956 ) ) ;
#136 = APPROVAL_ROLE ( '' ) ;
#137 = EDGE_CURVE ( 'NONE', #235, #15, #3, .T. ) ;
#138 = EDGE_LOOP ( 'NONE', ( #116, #160, #117, #193 ) ) ;
#139 = ORIENTED_EDGE ( 'NONE', *, *, #86, .T. ) ;
#140 = ORIENTED_EDGE ( 'NONE', *, *, #105, .F. ) ;
#141 = APPROVAL_PERSON_ORGANIZATION ( #186, #1, #136 ) ;
#142 = CYLINDRICAL_SURFACE ( 'NONE', #73, 0.5000000000000000000 ) ;
#143 = VECTOR ( 'NONE', #164, 1000.000000000000000 ) ;
#144 = DIRECTION ( 'NONE',  ( -0.000000000000000000, -0.000000000000000000, -1.000000000000000000 ) ) ;
#145 = DIRECTION ( 'NONE',  ( -0.000000000000000000, -0.000000000000000000, -1.000000000000000000 ) ) ;
#146 = CARTESIAN_POINT ( 'NONE',  ( 0.000000000000000000, 0.000000000000000000, 0.000000000000000000 ) ) ;
#147 = CARTESIAN_POINT ( 'NONE',  ( 0.000000000000000000, 0.000000000000000000, 100.0000000000000000 ) ) ;
#148 = PERSON_AND_ORGANIZATION ( #70, #242 ) ;
#149 = PERSON_AND_ORGANIZATION ( #70, #242 ) ;
#150 = AXIS2_PLACEMENT_3D ( 'NONE', #212, #100, #157 ) ;
#151 = ORIENTED_EDGE ( 'NONE', *, *, #38, .T. ) ;
#152 = APPROVAL_ROLE ( '' ) ;
#153 = ORIENTED_EDGE ( 'NONE', *, *, #86, .F. ) ;
#154 = COORDINATED_UNIVERSAL_TIME_OFFSET ( 1, 0, .AHEAD. ) ;
#155 = DIRECTION ( 'NONE',  ( 1.000000000000000000, 0.000000000000000000, 0.000000000000000000 ) ) ;
#156 = APPROVAL_ROLE ( '' ) ;
#157 = DIRECTION ( 'NONE',  ( 1.000000000000000000, 0.000000000000000000, 0.000000000000000000 ) ) ;
#158 = AXIS2_PLACEMENT_3D ( 'NONE', #166, #130, #104 ) ;
#159 = APPROVAL_PERSON_ORGANIZATION ( #95, #17, #156 ) ;
#160 = ORIENTED_EDGE ( 'NONE', *, *, #81, .F. ) ;
#161 = AXIS2_PLACEMENT_3D ( 'NONE', #220, #49, #53 ) ;
#162 = COORDINATED_UNIVERSAL_TIME_OFFSET ( 1, 0, .AHEAD. ) ;
#163 = AXIS2_PLACEMENT_3D ( 'NONE', #207, #145, #222 ) ;
#164 = DIRECTION ( 'NONE',  ( -0.000000000000000000, -0.000000000000000000, -1.000000000000000000 ) ) ;
#165 = PLANE ( 'NONE',  #210 ) ;
#166 = CARTESIAN_POINT ( 'NONE',  ( 0.000000000000000000, 0.000000000000000000, 100.0000000000000000 ) ) ;
#167 = CARTESIAN_POINT ( 'NONE',  ( 1.250000000000000000, 1.530808498934191571E-16, 1.199999999999999956 ) ) ;
#168 = ADVANCED_FACE ( 'NONE', ( #84 ), #125, .T. ) ;
#169 = PERSON_AND_ORGANIZATION ( #70, #242 ) ;
#170 = EDGE_LOOP ( 'NONE', ( #190, #134, #230, #20 ) ) ;
#171 = COORDINATED_UNIVERSAL_TIME_OFFSET ( 1, 0, .AHEAD. ) ;
#172 = DATE_AND_TIME ( #250, #4 ) ;
#173 = PLANE ( 'NONE',  #101 ) ;
#174 = CARTESIAN_POINT ( 'NONE',  ( 0.000000000000000000, 0.000000000000000000, 100.0000000000000000 ) ) ;
#175 = DIRECTION ( 'NONE',  ( 1.000000000000000000, 0.000000000000000000, -0.000000000000000000 ) ) ;
#176 = CARTESIAN_POINT ( 'NONE',  ( 0.5000000000000000000, 6.123233995736766036E-17, 1.199999999999999956 ) ) ;
#177 = AXIS2_PLACEMENT_3D ( 'NONE', #18, #215, #74 ) ;
#178 = VERTEX_POINT ( 'NONE', #225 ) ;
#179 = DIRECTION ( 'NONE',  ( 0.000000000000000000, 0.000000000000000000, 1.000000000000000000 ) ) ;
#180 = PRODUCT ( 'f5d7', 'f5d7', '', ( #249 ) ) ;
#181 =( LENGTH_UNIT ( ) NAMED_UNIT ( * ) SI_UNIT ( .MILLI., .METRE. ) );
#182 = LOCAL_TIME ( 15, 49, 26.00000000000000000, #213 ) ;
#183 = PRODUCT_RELATED_PRODUCT_CATEGORY ( 'detail', '', ( #180 ) ) ;
#184 = CARTESIAN_POINT ( 'NONE',  ( 0.5000000000000000000, 6.123233995736766036E-17, 100.0000000000000000 ) ) ;
#185 = DIRECTION ( 'NONE',  ( 0.000000000000000000, 0.000000000000000000, 1.000000000000000000 ) ) ;
#186 = PERSON_AND_ORGANIZATION ( #70, #242 ) ;
#187 = APPLICATION_CONTEXT ( 'configuration controlled 3d designs of mechanical parts and assemblies' ) ;
#188 = DATE_AND_TIME ( #112, #80 ) ;
#189 = PERSON_AND_ORGANIZATION ( #70, #242 ) ;
#190 = ORIENTED_EDGE ( 'NONE', *, *, #48, .F. ) ;
#191 = FACE_BOUND ( 'NONE', #64, .T. ) ;
#192 = APPLICATION_CONTEXT ( 'configuration controlled 3d designs of mechanical parts and assemblies' ) ;
#193 = ORIENTED_EDGE ( 'NONE', *, *, #105, .T. ) ;
#194 = ORIENTED_EDGE ( 'NONE', *, *, #38, .F. ) ;
#195 = ADVANCED_FACE ( 'NONE', ( #9 ), #142, .T. ) ;
#196 = CIRCLE ( 'NONE', #2, 1.250000000000000000 ) ;
#197 = ADVANCED_FACE ( 'NONE', ( #85 ), #165, .F. ) ;
#198 = APPROVAL_DATE_TIME ( #218, #17 ) ;
#199 = ORIENTED_EDGE ( 'NONE', *, *, #34, .F. ) ;
#200 = AXIS2_PLACEMENT_3D ( 'NONE', #39, #252, #77 ) ;
#201 = DIRECTION ( 'NONE',  ( -1.000000000000000000, 0.000000000000000000, 0.000000000000000000 ) ) ;
#202 = DIRECTION ( 'NONE',  ( 0.000000000000000000, 0.000000000000000000, 1.000000000000000000 ) ) ;
#203 = CARTESIAN_POINT ( 'NONE',  ( -0.5000000000000000000, 0.000000000000000000, 1.199999999999999956 ) ) ;
#204 = DESIGN_CONTEXT ( 'detailed design', #192, 'design' ) ;
#205 = VECTOR ( 'NONE', #128, 1000.000000000000000 ) ;
#206 = LOCAL_TIME ( 15, 49, 26.00000000000000000, #162 ) ;
#207 = CARTESIAN_POINT ( 'NONE',  ( 0.000000000000000000, 0.000000000000000000, 1.199999999999999956 ) ) ;
#208 = CLOSED_SHELL ( 'NONE', ( #114, #102, #227, #55, #197, #195, #168 ) ) ;
#209 = PERSON_AND_ORGANIZATION_ROLE ( 'classification_officer' ) ;
#210 = AXIS2_PLACEMENT_3D ( 'NONE', #146, #202, #239 ) ;
#211 = DATE_AND_TIME ( #54, #243 ) ;
#212 = CARTESIAN_POINT ( 'NONE',  ( 0.000000000000000000, 0.000000000000000000, 1.199999999999999956 ) ) ;
#213 = COORDINATED_UNIVERSAL_TIME_OFFSET ( 1, 0, .AHEAD. ) ;
#214 = CARTESIAN_POINT ( 'NONE',  ( 0.000000000000000000, 0.000000000000000000, 1.199999999999999956 ) ) ;
#215 = DIRECTION ( 'NONE',  ( 0.000000000000000000, 0.000000000000000000, 1.000000000000000000 ) ) ;
#216 = ORIENTED_EDGE ( 'NONE', *, *, #24, .T. ) ;
#217 = CC_DESIGN_PERSON_AND_ORGANIZATION_ASSIGNMENT ( #189, #209, ( #228 ) ) ;
#218 = DATE_AND_TIME ( #120, #206 ) ;
#219 = VERTEX_POINT ( 'NONE', #203 ) ;
#220 = CARTESIAN_POINT ( 'NONE',  ( 0.000000000000000000, 0.000000000000000000, 1.199999999999999956 ) ) ;
#221 = CARTESIAN_POINT ( 'NONE',  ( 0.000000000000000000, 0.000000000000000000, 100.0000000000000000 ) ) ;
#222 = DIRECTION ( 'NONE',  ( -1.000000000000000000, 0.000000000000000000, 0.000000000000000000 ) ) ;
#223 = CYLINDRICAL_SURFACE ( 'NONE', #163, 1.250000000000000000 ) ;
#224 = AXIS2_PLACEMENT_3D ( 'NONE', #253, #99, #83 ) ;
#225 = CARTESIAN_POINT ( 'NONE',  ( 1.250000000000000000, 1.530808498934191571E-16, 0.000000000000000000 ) ) ;
#226 = CC_DESIGN_APPROVAL ( #1, ( #13 ) ) ;
#227 = ADVANCED_FACE ( 'NONE', ( #244 ), #223, .T. ) ;
#228 = SECURITY_CLASSIFICATION ( '', '', #113 ) ;
#229 = PERSON_AND_ORGANIZATION_ROLE ( 'creator' ) ;
#230 = ORIENTED_EDGE ( 'NONE', *, *, #90, .T. ) ;
#231 = PERSON_AND_ORGANIZATION ( #70, #242 ) ;
#232 = DIRECTION ( 'NONE',  ( 0.000000000000000000, 0.000000000000000000, 1.000000000000000000 ) ) ;
#233 = SHAPE_DEFINITION_REPRESENTATION ( #106, #237 ) ;
#234 = PRODUCT_DEFINITION ( 'NEZNÁMÝ', '', #13, #204 ) ;
#235 = VERTEX_POINT ( 'NONE', #107 ) ;
#236 = EDGE_LOOP ( 'NONE', ( #82, #247 ) ) ;
#237 = ADVANCED_BREP_SHAPE_REPRESENTATION ( 'f5d7', ( #119, #177 ), #254 ) ;
#238 = DIRECTION ( 'NONE',  ( 1.000000000000000000, 0.000000000000000000, 0.000000000000000000 ) ) ;
#239 = DIRECTION ( 'NONE',  ( 1.000000000000000000, 0.000000000000000000, -0.000000000000000000 ) ) ;
#240 = EDGE_CURVE ( 'NONE', #103, #178, #89, .T. ) ;
#241 = CIRCLE ( 'NONE', #224, 0.5000000000000000000 ) ;
#242 = ORGANIZATION ( 'NEURÈENÝ', 'NEURÈENÝ', '' ) ;
#243 = LOCAL_TIME ( 15, 49, 26.00000000000000000, #154 ) ;
#244 = FACE_OUTER_BOUND ( 'NONE', #138, .T. ) ;
#245 = DIRECTION ( 'NONE',  ( -0.000000000000000000, -0.000000000000000000, -1.000000000000000000 ) ) ;
#246 = EDGE_CURVE ( 'NONE', #15, #12, #29, .T. ) ;
#247 = ORIENTED_EDGE ( 'NONE', *, *, #48, .T. ) ;
#248 = APPROVAL_DATE_TIME ( #172, #1 ) ;
#249 = MECHANICAL_CONTEXT ( 'NONE', #187, 'mechanical' ) ;
#250 = CALENDAR_DATE ( 2023, 31, 1 ) ;
#251 = DIRECTION ( 'NONE',  ( 1.000000000000000000, 0.000000000000000000, 0.000000000000000000 ) ) ;
#252 = DIRECTION ( 'NONE',  ( 0.000000000000000000, 0.000000000000000000, 1.000000000000000000 ) ) ;
#253 = CARTESIAN_POINT ( 'NONE',  ( 0.000000000000000000, 0.000000000000000000, 1.199999999999999956 ) ) ;
#254 =( GEOMETRIC_REPRESENTATION_CONTEXT ( 3 ) GLOBAL_UNCERTAINTY_ASSIGNED_CONTEXT ( ( #42 ) ) GLOBAL_UNIT_ASSIGNED_CONTEXT ( ( #181, #51, #31 ) ) REPRESENTATION_CONTEXT ( 'NONE', 'WORKASPACE' ) );
#255 = ORIENTED_EDGE ( 'NONE', *, *, #81, .T. ) ;
ENDSEC;
END-ISO-10303-21;
