ISO-10303-21;
HEADER;
FILE_DESCRIPTION (( 'STEP AP203' ),
    '1' );
FILE_NAME ('13b8.STEP',
    '2023-02-13T12:52:38',
    ( '' ),
    ( '' ),
    'SwSTEP 2.0',
    'SolidWorks 2019',
    '' );
FILE_SCHEMA (( 'CONFIG_CONTROL_DESIGN' ));
ENDSEC;

DATA;
#1 = ORIENTED_EDGE ( 'NONE', *, *, #175, .F. ) ;
#2 = PRODUCT_DEFINITION_FORMATION_WITH_SPECIFIED_SOURCE ( 'LIBOVOLNÝ', '', #178, .NOT_KNOWN. ) ;
#3 = ORIENTED_EDGE ( 'NONE', *, *, #118, .F. ) ;
#4 = APPROVAL ( #255, 'NEURÈENÝ' ) ;
#5 = APPLICATION_CONTEXT ( 'configuration controlled 3d designs of mechanical parts and assemblies' ) ;
#6 = APPROVAL_DATE_TIME ( #47, #218 ) ;
#7 = COORDINATED_UNIVERSAL_TIME_OFFSET ( 1, 0, .AHEAD. ) ;
#8 = DATE_TIME_ROLE ( 'classification_date' ) ;
#9 = ADVANCED_FACE ( 'NONE', ( #189 ), #204, .T. ) ;
#10 = PERSON_AND_ORGANIZATION_ROLE ( 'creator' ) ;
#11 = DIRECTION ( 'NONE',  ( 1.000000000000000000, 0.000000000000000000, 0.000000000000000000 ) ) ;
#12 = FACE_OUTER_BOUND ( 'NONE', #247, .T. ) ;
#13 = ORIENTED_EDGE ( 'NONE', *, *, #184, .F. ) ;
#14 = ADVANCED_FACE ( 'NONE', ( #149 ), #66, .T. ) ;
#15 = AXIS2_PLACEMENT_3D ( 'NONE', #215, #213, #217 ) ;
#16 = DIRECTION ( 'NONE',  ( 0.000000000000000000, 0.000000000000000000, 1.000000000000000000 ) ) ;
#17 =( NAMED_UNIT ( * ) PLANE_ANGLE_UNIT ( ) SI_UNIT ( $, .RADIAN. ) );
#18 = DIRECTION ( 'NONE',  ( 0.000000000000000000, 0.000000000000000000, 1.000000000000000000 ) ) ;
#19 = CIRCLE ( 'NONE', #196, 4.250000000000000000 ) ;
#20 = DIRECTION ( 'NONE',  ( 0.000000000000000000, 0.000000000000000000, 1.000000000000000000 ) ) ;
#21 = PERSON_AND_ORGANIZATION ( #39, #162 ) ;
#22 = EDGE_LOOP ( 'NONE', ( #214, #73, #122, #239 ) ) ;
#23 = ORIENTED_EDGE ( 'NONE', *, *, #68, .F. ) ;
#24 = AXIS2_PLACEMENT_3D ( 'NONE', #186, #144, #11 ) ;
#25 = ORIENTED_EDGE ( 'NONE', *, *, #105, .T. ) ;
#26 = APPROVAL_STATUS ( 'not_yet_approved' ) ;
#27 = PERSON_AND_ORGANIZATION ( #39, #162 ) ;
#28 = ORIENTED_EDGE ( 'NONE', *, *, #124, .T. ) ;
#29 = CC_DESIGN_PERSON_AND_ORGANIZATION_ASSIGNMENT ( #187, #185, ( #2 ) ) ;
#30 = CARTESIAN_POINT ( 'NONE',  ( -4.250000000000000000, 0.000000000000000000, 200.0000000000000000 ) ) ;
#31 = UNCERTAINTY_MEASURE_WITH_UNIT (LENGTH_MEASURE( 1.000000000000000082E-05 ), #93, 'distance_accuracy_value', 'NONE');
#32 = AXIS2_PLACEMENT_3D ( 'NONE', #87, #79, #252 ) ;
#33 = CARTESIAN_POINT ( 'NONE',  ( 0.000000000000000000, 0.000000000000000000, 200.0000000000000000 ) ) ;
#34 = LOCAL_TIME ( 13, 52, 38.00000000000000000, #225 ) ;
#35 = CYLINDRICAL_SURFACE ( 'NONE', #164, 7.000000000000000000 ) ;
#36 = EDGE_CURVE ( 'NONE', #177, #106, #127, .T. ) ;
#37 = AXIS2_PLACEMENT_3D ( 'NONE', #159, #135, #236 ) ;
#38 = DIRECTION ( 'NONE',  ( 1.000000000000000000, 0.000000000000000000, 0.000000000000000000 ) ) ;
#39 = PERSON ( 'NEURÈENÝ', 'NEURÈENÝ', 'NEURÈENÝ', ('NEURÈENÝ'), ('NEURÈENÝ'), ('NEURÈENÝ') ) ;
#40 = CARTESIAN_POINT ( 'NONE',  ( 7.000000000000000000, 8.572527594031473190E-16, 5.000000000000000000 ) ) ;
#41 = DIRECTION ( 'NONE',  ( 1.000000000000000000, 0.000000000000000000, 0.000000000000000000 ) ) ;
#42 = ORIENTED_EDGE ( 'NONE', *, *, #118, .T. ) ;
#43 = VERTEX_POINT ( 'NONE', #108 ) ;
#44 = EDGE_LOOP ( 'NONE', ( #179, #200 ) ) ;
#45 = VECTOR ( 'NONE', #232, 1000.000000000000000 ) ;
#46 = CC_DESIGN_SECURITY_CLASSIFICATION ( #110, ( #2 ) ) ;
#47 = DATE_AND_TIME ( #205, #34 ) ;
#48 = CARTESIAN_POINT ( 'NONE',  ( 0.000000000000000000, 0.000000000000000000, 200.0000000000000000 ) ) ;
#49 = AXIS2_PLACEMENT_3D ( 'NONE', #158, #60, #172 ) ;
#50 = EDGE_CURVE ( 'NONE', #120, #106, #244, .T. ) ;
#51 = ADVANCED_BREP_SHAPE_REPRESENTATION ( '13b8', ( #240, #15 ), #92 ) ;
#52 = DIRECTION ( 'NONE',  ( 0.000000000000000000, 0.000000000000000000, 1.000000000000000000 ) ) ;
#53 = APPROVAL_ROLE ( '' ) ;
#54 = PERSON_AND_ORGANIZATION ( #39, #162 ) ;
#55 = DIRECTION ( 'NONE',  ( -0.000000000000000000, -0.000000000000000000, -1.000000000000000000 ) ) ;
#56 = CYLINDRICAL_SURFACE ( 'NONE', #181, 4.250000000000000000 ) ;
#57 = PLANE ( 'NONE',  #146 ) ;
#58 = FACE_OUTER_BOUND ( 'NONE', #140, .T. ) ;
#59 = ORIENTED_EDGE ( 'NONE', *, *, #192, .T. ) ;
#60 = DIRECTION ( 'NONE',  ( 0.000000000000000000, 0.000000000000000000, 1.000000000000000000 ) ) ;
#61 = CARTESIAN_POINT ( 'NONE',  ( 4.250000000000000000, 5.204748896376250699E-16, 5.000000000000000000 ) ) ;
#62 = PRODUCT_DEFINITION ( 'NEZNÁMÝ', '', #2, #243 ) ;
#63 = VECTOR ( 'NONE', #96, 1000.000000000000000 ) ;
#64 = MECHANICAL_CONTEXT ( 'NONE', #5, 'mechanical' ) ;
#65 = PRODUCT_DEFINITION_SHAPE ( 'NONE', 'NONE',  #62 ) ;
#66 = PLANE ( 'NONE',  #77 ) ;
#67 = PERSON_AND_ORGANIZATION ( #39, #162 ) ;
#68 = EDGE_CURVE ( 'NONE', #100, #120, #90, .T. ) ;
#69 = DATE_TIME_ROLE ( 'creation_date' ) ;
#70 = CARTESIAN_POINT ( 'NONE',  ( 0.000000000000000000, 0.000000000000000000, 200.0000000000000000 ) ) ;
#71 = CARTESIAN_POINT ( 'NONE',  ( 4.250000000000000000, 5.204748896376250699E-16, 200.0000000000000000 ) ) ;
#72 = APPROVAL_DATE_TIME ( #246, #121 ) ;
#73 = ORIENTED_EDGE ( 'NONE', *, *, #68, .T. ) ;
#74 = DIRECTION ( 'NONE',  ( -1.000000000000000000, 0.000000000000000000, 0.000000000000000000 ) ) ;
#75 = CC_DESIGN_PERSON_AND_ORGANIZATION_ASSIGNMENT ( #27, #103, ( #2 ) ) ;
#76 = CARTESIAN_POINT ( 'NONE',  ( -7.000000000000000000, 0.000000000000000000, 5.000000000000000000 ) ) ;
#77 = AXIS2_PLACEMENT_3D ( 'NONE', #70, #52, #126 ) ;
#78 = FACE_OUTER_BOUND ( 'NONE', #199, .T. ) ;
#79 = DIRECTION ( 'NONE',  ( 0.000000000000000000, 0.000000000000000000, 1.000000000000000000 ) ) ;
#80 = APPROVAL_ROLE ( '' ) ;
#81 = LOCAL_TIME ( 13, 52, 38.00000000000000000, #161 ) ;
#82 = ORIENTED_EDGE ( 'NONE', *, *, #138, .F. ) ;
#83 = CIRCLE ( 'NONE', #230, 4.250000000000000000 ) ;
#84 = DATE_AND_TIME ( #145, #113 ) ;
#85 = EDGE_CURVE ( 'NONE', #177, #100, #88, .T. ) ;
#86 = COORDINATED_UNIVERSAL_TIME_OFFSET ( 1, 0, .AHEAD. ) ;
#87 = CARTESIAN_POINT ( 'NONE',  ( 0.000000000000000000, 0.000000000000000000, 5.000000000000000000 ) ) ;
#88 = CIRCLE ( 'NONE', #170, 4.250000000000000000 ) ;
#89 = SHAPE_DEFINITION_REPRESENTATION ( #65, #51 ) ;
#90 = LINE ( 'NONE', #223, #248 ) ;
#91 =( NAMED_UNIT ( * ) SI_UNIT ( $, .STERADIAN. ) SOLID_ANGLE_UNIT ( ) );
#92 =( GEOMETRIC_REPRESENTATION_CONTEXT ( 3 ) GLOBAL_UNCERTAINTY_ASSIGNED_CONTEXT ( ( #31 ) ) GLOBAL_UNIT_ASSIGNED_CONTEXT ( ( #93, #17, #91 ) ) REPRESENTATION_CONTEXT ( 'NONE', 'WORKASPACE' ) );
#93 =( LENGTH_UNIT ( ) NAMED_UNIT ( * ) SI_UNIT ( .MILLI., .METRE. ) );
#94 = CC_DESIGN_PERSON_AND_ORGANIZATION_ASSIGNMENT ( #180, #220, ( #178 ) ) ;
#95 = FACE_OUTER_BOUND ( 'NONE', #197, .T. ) ;
#96 = DIRECTION ( 'NONE',  ( -0.000000000000000000, -0.000000000000000000, -1.000000000000000000 ) ) ;
#97 = CC_DESIGN_PERSON_AND_ORGANIZATION_ASSIGNMENT ( #231, #10, ( #62 ) ) ;
#98 = ORIENTED_EDGE ( 'NONE', *, *, #50, .F. ) ;
#99 = CALENDAR_DATE ( 2023, 13, 2 ) ;
#100 = VERTEX_POINT ( 'NONE', #71 ) ;
#101 = PRODUCT_RELATED_PRODUCT_CATEGORY ( 'detail', '', ( #178 ) ) ;
#102 = APPLICATION_CONTEXT ( 'configuration controlled 3d designs of mechanical parts and assemblies' ) ;
#103 = PERSON_AND_ORGANIZATION_ROLE ( 'creator' ) ;
#104 = CLOSED_SHELL ( 'NONE', ( #9, #142, #112, #201, #221, #210, #14 ) ) ;
#105 = EDGE_CURVE ( 'NONE', #237, #43, #251, .T. ) ;
#106 = VERTEX_POINT ( 'NONE', #203 ) ;
#107 = APPROVAL_DATE_TIME ( #228, #4 ) ;
#108 = CARTESIAN_POINT ( 'NONE',  ( -7.000000000000000000, 0.000000000000000000, 0.000000000000000000 ) ) ;
#109 = DIRECTION ( 'NONE',  ( 1.000000000000000000, 0.000000000000000000, 0.000000000000000000 ) ) ;
#110 = SECURITY_CLASSIFICATION ( '', '', #168 ) ;
#111 = CARTESIAN_POINT ( 'NONE',  ( 0.000000000000000000, 0.000000000000000000, 5.000000000000000000 ) ) ;
#112 = ADVANCED_FACE ( 'NONE', ( #12 ), #183, .T. ) ;
#113 = LOCAL_TIME ( 13, 52, 38.00000000000000000, #148 ) ;
#114 = CARTESIAN_POINT ( 'NONE',  ( -4.250000000000000000, 0.000000000000000000, 200.0000000000000000 ) ) ;
#115 = APPROVAL_PERSON_ORGANIZATION ( #166, #218, #202 ) ;
#116 = ORIENTED_EDGE ( 'NONE', *, *, #85, .F. ) ;
#117 = CIRCLE ( 'NONE', #154, 7.000000000000000000 ) ;
#118 = EDGE_CURVE ( 'NONE', #163, #241, #219, .T. ) ;
#119 = CARTESIAN_POINT ( 'NONE',  ( 7.000000000000000000, 8.572527594031473190E-16, 5.000000000000000000 ) ) ;
#120 = VERTEX_POINT ( 'NONE', #61 ) ;
#121 = APPROVAL ( #26, 'NEURÈENÝ' ) ;
#122 = ORIENTED_EDGE ( 'NONE', *, *, #50, .T. ) ;
#123 = AXIS2_PLACEMENT_3D ( 'NONE', #229, #242, #109 ) ;
#124 = EDGE_CURVE ( 'NONE', #241, #237, #157, .T. ) ;
#125 = EDGE_LOOP ( 'NONE', ( #42, #59 ) ) ;
#126 = DIRECTION ( 'NONE',  ( 1.000000000000000000, 0.000000000000000000, -0.000000000000000000 ) ) ;
#127 = LINE ( 'NONE', #30, #45 ) ;
#128 = CALENDAR_DATE ( 2023, 13, 2 ) ;
#129 = DIRECTION ( 'NONE',  ( -0.000000000000000000, -0.000000000000000000, -1.000000000000000000 ) ) ;
#130 = CIRCLE ( 'NONE', #37, 7.000000000000000000 ) ;
#131 = CARTESIAN_POINT ( 'NONE',  ( 0.000000000000000000, 0.000000000000000000, 0.000000000000000000 ) ) ;
#132 = DIRECTION ( 'NONE',  ( 1.000000000000000000, 0.000000000000000000, -0.000000000000000000 ) ) ;
#133 = CARTESIAN_POINT ( 'NONE',  ( 0.000000000000000000, 0.000000000000000000, 200.0000000000000000 ) ) ;
#134 = CC_DESIGN_DATE_AND_TIME_ASSIGNMENT ( #143, #8, ( #110 ) ) ;
#135 = DIRECTION ( 'NONE',  ( 0.000000000000000000, 0.000000000000000000, 1.000000000000000000 ) ) ;
#136 = ORIENTED_EDGE ( 'NONE', *, *, #138, .T. ) ;
#137 = VECTOR ( 'NONE', #208, 1000.000000000000000 ) ;
#138 = EDGE_CURVE ( 'NONE', #43, #237, #130, .T. ) ;
#139 = CC_DESIGN_APPROVAL ( #218, ( #110 ) ) ;
#140 = EDGE_LOOP ( 'NONE', ( #23, #116, #160, #188 ) ) ;
#141 = AXIS2_PLACEMENT_3D ( 'NONE', #153, #55, #207 ) ;
#142 = ADVANCED_FACE ( 'NONE', ( #78 ), #35, .T. ) ;
#143 = DATE_AND_TIME ( #128, #254 ) ;
#144 = DIRECTION ( 'NONE',  ( 0.000000000000000000, 0.000000000000000000, 1.000000000000000000 ) ) ;
#145 = CALENDAR_DATE ( 2023, 13, 2 ) ;
#146 = AXIS2_PLACEMENT_3D ( 'NONE', #131, #20, #132 ) ;
#147 = DIRECTION ( 'NONE',  ( -1.000000000000000000, 0.000000000000000000, 0.000000000000000000 ) ) ;
#148 = COORDINATED_UNIVERSAL_TIME_OFFSET ( 1, 0, .AHEAD. ) ;
#149 = FACE_OUTER_BOUND ( 'NONE', #44, .T. ) ;
#150 = CC_DESIGN_PERSON_AND_ORGANIZATION_ASSIGNMENT ( #54, #182, ( #110 ) ) ;
#151 = ORIENTED_EDGE ( 'NONE', *, *, #184, .T. ) ;
#152 = CALENDAR_DATE ( 2023, 13, 2 ) ;
#153 = CARTESIAN_POINT ( 'NONE',  ( 0.000000000000000000, 0.000000000000000000, 5.000000000000000000 ) ) ;
#154 = AXIS2_PLACEMENT_3D ( 'NONE', #253, #16, #238 ) ;
#155 = APPLICATION_PROTOCOL_DEFINITION ( 'international standard', 'config_control_design', 1994, #5 ) ;
#156 = DIRECTION ( 'NONE',  ( 0.000000000000000000, 0.000000000000000000, 1.000000000000000000 ) ) ;
#157 = LINE ( 'NONE', #40, #137 ) ;
#158 = CARTESIAN_POINT ( 'NONE',  ( 0.000000000000000000, 0.000000000000000000, 5.000000000000000000 ) ) ;
#159 = CARTESIAN_POINT ( 'NONE',  ( 0.000000000000000000, 0.000000000000000000, 0.000000000000000000 ) ) ;
#160 = ORIENTED_EDGE ( 'NONE', *, *, #36, .T. ) ;
#161 = COORDINATED_UNIVERSAL_TIME_OFFSET ( 1, 0, .AHEAD. ) ;
#162 = ORGANIZATION ( 'NEURÈENÝ', 'NEURÈENÝ', '' ) ;
#163 = VERTEX_POINT ( 'NONE', #76 ) ;
#164 = AXIS2_PLACEMENT_3D ( 'NONE', #111, #250, #74 ) ;
#165 = CC_DESIGN_DATE_AND_TIME_ASSIGNMENT ( #84, #69, ( #62 ) ) ;
#166 = PERSON_AND_ORGANIZATION ( #39, #162 ) ;
#167 = DIRECTION ( 'NONE',  ( -0.000000000000000000, -0.000000000000000000, -1.000000000000000000 ) ) ;
#168 = SECURITY_CLASSIFICATION_LEVEL ( 'unclassified' ) ;
#169 = ORIENTED_EDGE ( 'NONE', *, *, #124, .F. ) ;
#170 = AXIS2_PLACEMENT_3D ( 'NONE', #48, #206, #245 ) ;
#171 = EDGE_CURVE ( 'NONE', #100, #177, #19, .T. ) ;
#172 = DIRECTION ( 'NONE',  ( 1.000000000000000000, 0.000000000000000000, -0.000000000000000000 ) ) ;
#173 = CARTESIAN_POINT ( 'NONE',  ( 0.000000000000000000, 0.000000000000000000, 200.0000000000000000 ) ) ;
#174 = ORIENTED_EDGE ( 'NONE', *, *, #105, .F. ) ;
#175 = EDGE_CURVE ( 'NONE', #106, #120, #83, .T. ) ;
#176 = APPLICATION_PROTOCOL_DEFINITION ( 'international standard', 'config_control_design', 1994, #102 ) ;
#177 = VERTEX_POINT ( 'NONE', #114 ) ;
#178 = PRODUCT ( '13b8', '13b8', '', ( #64 ) ) ;
#179 = ORIENTED_EDGE ( 'NONE', *, *, #85, .T. ) ;
#180 = PERSON_AND_ORGANIZATION ( #39, #162 ) ;
#181 = AXIS2_PLACEMENT_3D ( 'NONE', #133, #193, #211 ) ;
#182 = PERSON_AND_ORGANIZATION_ROLE ( 'classification_officer' ) ;
#183 = CYLINDRICAL_SURFACE ( 'NONE', #141, 7.000000000000000000 ) ;
#184 = EDGE_CURVE ( 'NONE', #163, #43, #198, .T. ) ;
#185 = PERSON_AND_ORGANIZATION_ROLE ( 'design_supplier' ) ;
#186 = CARTESIAN_POINT ( 'NONE',  ( 0.000000000000000000, 0.000000000000000000, 5.000000000000000000 ) ) ;
#187 = PERSON_AND_ORGANIZATION ( #39, #162 ) ;
#188 = ORIENTED_EDGE ( 'NONE', *, *, #175, .T. ) ;
#189 = FACE_OUTER_BOUND ( 'NONE', #22, .T. ) ;
#190 = CARTESIAN_POINT ( 'NONE',  ( 7.000000000000000000, 8.572527594031473190E-16, 0.000000000000000000 ) ) ;
#191 = APPROVAL_PERSON_ORGANIZATION ( #21, #4, #80 ) ;
#192 = EDGE_CURVE ( 'NONE', #241, #163, #117, .T. ) ;
#193 = DIRECTION ( 'NONE',  ( -0.000000000000000000, -0.000000000000000000, -1.000000000000000000 ) ) ;
#194 = LOCAL_TIME ( 13, 52, 38.00000000000000000, #7 ) ;
#195 = CARTESIAN_POINT ( 'NONE',  ( 0.000000000000000000, 0.000000000000000000, 5.000000000000000000 ) ) ;
#196 = AXIS2_PLACEMENT_3D ( 'NONE', #173, #18, #38 ) ;
#197 = EDGE_LOOP ( 'NONE', ( #82, #174 ) ) ;
#198 = LINE ( 'NONE', #234, #63 ) ;
#199 = EDGE_LOOP ( 'NONE', ( #226, #28, #25, #13 ) ) ;
#200 = ORIENTED_EDGE ( 'NONE', *, *, #171, .T. ) ;
#201 = ADVANCED_FACE ( 'NONE', ( #233, #249 ), #212, .T. ) ;
#202 = APPROVAL_ROLE ( '' ) ;
#203 = CARTESIAN_POINT ( 'NONE',  ( -4.250000000000000000, 0.000000000000000000, 5.000000000000000000 ) ) ;
#204 = CYLINDRICAL_SURFACE ( 'NONE', #209, 4.250000000000000000 ) ;
#205 = CALENDAR_DATE ( 2023, 13, 2 ) ;
#206 = DIRECTION ( 'NONE',  ( 0.000000000000000000, 0.000000000000000000, 1.000000000000000000 ) ) ;
#207 = DIRECTION ( 'NONE',  ( -1.000000000000000000, 0.000000000000000000, 0.000000000000000000 ) ) ;
#208 = DIRECTION ( 'NONE',  ( -0.000000000000000000, -0.000000000000000000, -1.000000000000000000 ) ) ;
#209 = AXIS2_PLACEMENT_3D ( 'NONE', #33, #129, #147 ) ;
#210 = ADVANCED_FACE ( 'NONE', ( #58 ), #56, .T. ) ;
#211 = DIRECTION ( 'NONE',  ( -1.000000000000000000, 0.000000000000000000, 0.000000000000000000 ) ) ;
#212 = PLANE ( 'NONE',  #49 ) ;
#213 = DIRECTION ( 'NONE',  ( 0.000000000000000000, 0.000000000000000000, 1.000000000000000000 ) ) ;
#214 = ORIENTED_EDGE ( 'NONE', *, *, #171, .F. ) ;
#215 = CARTESIAN_POINT ( 'NONE',  ( 0.000000000000000000, 0.000000000000000000, 0.000000000000000000 ) ) ;
#216 = EDGE_LOOP ( 'NONE', ( #1, #98 ) ) ;
#217 = DIRECTION ( 'NONE',  ( 1.000000000000000000, 0.000000000000000000, 0.000000000000000000 ) ) ;
#218 = APPROVAL ( #222, 'NEURÈENÝ' ) ;
#219 = CIRCLE ( 'NONE', #32, 7.000000000000000000 ) ;
#220 = PERSON_AND_ORGANIZATION_ROLE ( 'design_owner' ) ;
#221 = ADVANCED_FACE ( 'NONE', ( #95 ), #57, .F. ) ;
#222 = APPROVAL_STATUS ( 'not_yet_approved' ) ;
#223 = CARTESIAN_POINT ( 'NONE',  ( 4.250000000000000000, 5.204748896376250699E-16, 200.0000000000000000 ) ) ;
#224 = CC_DESIGN_APPROVAL ( #4, ( #62 ) ) ;
#225 = COORDINATED_UNIVERSAL_TIME_OFFSET ( 1, 0, .AHEAD. ) ;
#226 = ORIENTED_EDGE ( 'NONE', *, *, #192, .F. ) ;
#227 = APPROVAL_PERSON_ORGANIZATION ( #67, #121, #53 ) ;
#228 = DATE_AND_TIME ( #99, #81 ) ;
#229 = CARTESIAN_POINT ( 'NONE',  ( 0.000000000000000000, 0.000000000000000000, 0.000000000000000000 ) ) ;
#230 = AXIS2_PLACEMENT_3D ( 'NONE', #195, #156, #41 ) ;
#231 = PERSON_AND_ORGANIZATION ( #39, #162 ) ;
#232 = DIRECTION ( 'NONE',  ( -0.000000000000000000, -0.000000000000000000, -1.000000000000000000 ) ) ;
#233 = FACE_BOUND ( 'NONE', #216, .T. ) ;
#234 = CARTESIAN_POINT ( 'NONE',  ( -7.000000000000000000, 0.000000000000000000, 5.000000000000000000 ) ) ;
#235 = CC_DESIGN_APPROVAL ( #121, ( #2 ) ) ;
#236 = DIRECTION ( 'NONE',  ( 1.000000000000000000, 0.000000000000000000, 0.000000000000000000 ) ) ;
#237 = VERTEX_POINT ( 'NONE', #190 ) ;
#238 = DIRECTION ( 'NONE',  ( 1.000000000000000000, 0.000000000000000000, 0.000000000000000000 ) ) ;
#239 = ORIENTED_EDGE ( 'NONE', *, *, #36, .F. ) ;
#240 = MANIFOLD_SOLID_BREP ( 'Pøidat vysunutím3', #104 ) ;
#241 = VERTEX_POINT ( 'NONE', #119 ) ;
#242 = DIRECTION ( 'NONE',  ( 0.000000000000000000, 0.000000000000000000, 1.000000000000000000 ) ) ;
#243 = DESIGN_CONTEXT ( 'detailed design', #102, 'design' ) ;
#244 = CIRCLE ( 'NONE', #24, 4.250000000000000000 ) ;
#245 = DIRECTION ( 'NONE',  ( 1.000000000000000000, 0.000000000000000000, 0.000000000000000000 ) ) ;
#246 = DATE_AND_TIME ( #152, #194 ) ;
#247 = EDGE_LOOP ( 'NONE', ( #169, #3, #151, #136 ) ) ;
#248 = VECTOR ( 'NONE', #167, 1000.000000000000000 ) ;
#249 = FACE_OUTER_BOUND ( 'NONE', #125, .T. ) ;
#250 = DIRECTION ( 'NONE',  ( -0.000000000000000000, -0.000000000000000000, -1.000000000000000000 ) ) ;
#251 = CIRCLE ( 'NONE', #123, 7.000000000000000000 ) ;
#252 = DIRECTION ( 'NONE',  ( 1.000000000000000000, 0.000000000000000000, 0.000000000000000000 ) ) ;
#253 = CARTESIAN_POINT ( 'NONE',  ( 0.000000000000000000, 0.000000000000000000, 5.000000000000000000 ) ) ;
#254 = LOCAL_TIME ( 13, 52, 38.00000000000000000, #86 ) ;
#255 = APPROVAL_STATUS ( 'not_yet_approved' ) ;
ENDSEC;
END-ISO-10303-21;
