ISO-10303-21;
HEADER;
FILE_DESCRIPTION (( 'STEP AP203' ),
    '1' );
FILE_NAME ('83d3.STEP',
    '2023-02-13T10:17:48',
    ( '' ),
    ( '' ),
    'SwSTEP 2.0',
    'SolidWorks 2019',
    '' );
FILE_SCHEMA (( 'CONFIG_CONTROL_DESIGN' ));
ENDSEC;

DATA;
#1 = PERSON_AND_ORGANIZATION ( #105, #194 ) ;
#2 = CARTESIAN_POINT ( 'NONE',  ( -6.250000000000000000, 0.000000000000000000, 400.0000000000000000 ) ) ;
#3 = CARTESIAN_POINT ( 'NONE',  ( -9.000000000000000000, 0.000000000000000000, 7.000000000000000000 ) ) ;
#4 = DIRECTION ( 'NONE',  ( 1.000000000000000000, 0.000000000000000000, -0.000000000000000000 ) ) ;
#5 = AXIS2_PLACEMENT_3D ( 'NONE', #199, #7, #111 ) ;
#6 = DIRECTION ( 'NONE',  ( 0.000000000000000000, 0.000000000000000000, 1.000000000000000000 ) ) ;
#7 = DIRECTION ( 'NONE',  ( -0.000000000000000000, -0.000000000000000000, -1.000000000000000000 ) ) ;
#8 = DIRECTION ( 'NONE',  ( -1.000000000000000000, 0.000000000000000000, 0.000000000000000000 ) ) ;
#9 = CC_DESIGN_DATE_AND_TIME_ASSIGNMENT ( #94, #154, ( #137 ) ) ;
#10 = CIRCLE ( 'NONE', #177, 9.000000000000000000 ) ;
#11 = APPLICATION_CONTEXT ( 'configuration controlled 3d designs of mechanical parts and assemblies' ) ;
#12 = AXIS2_PLACEMENT_3D ( 'NONE', #227, #53, #222 ) ;
#13 = PRODUCT_DEFINITION_SHAPE ( 'NONE', 'NONE',  #219 ) ;
#14 = FACE_OUTER_BOUND ( 'NONE', #193, .T. ) ;
#15 = CIRCLE ( 'NONE', #12, 9.000000000000000000 ) ;
#16 = PERSON_AND_ORGANIZATION ( #105, #194 ) ;
#17 = ORIENTED_EDGE ( 'NONE', *, *, #176, .F. ) ;
#18 = ORIENTED_EDGE ( 'NONE', *, *, #226, .F. ) ;
#19 = SECURITY_CLASSIFICATION_LEVEL ( 'unclassified' ) ;
#20 = VERTEX_POINT ( 'NONE', #49 ) ;
#21 = PERSON_AND_ORGANIZATION ( #105, #194 ) ;
#22 = AXIS2_PLACEMENT_3D ( 'NONE', #155, #57, #178 ) ;
#23 = COORDINATED_UNIVERSAL_TIME_OFFSET ( 1, 0, .AHEAD. ) ;
#24 = FACE_OUTER_BOUND ( 'NONE', #90, .T. ) ;
#25 = AXIS2_PLACEMENT_3D ( 'NONE', #33, #118, #95 ) ;
#26 = FACE_OUTER_BOUND ( 'NONE', #63, .T. ) ;
#27 = MANIFOLD_SOLID_BREP ( 'Pøidat vysunutím3', #64 ) ;
#28 = PLANE ( 'NONE',  #255 ) ;
#29 = CARTESIAN_POINT ( 'NONE',  ( 0.000000000000000000, 0.000000000000000000, 400.0000000000000000 ) ) ;
#30 = FACE_OUTER_BOUND ( 'NONE', #47, .T. ) ;
#31 = CARTESIAN_POINT ( 'NONE',  ( 0.000000000000000000, 0.000000000000000000, 7.000000000000000000 ) ) ;
#32 = CARTESIAN_POINT ( 'NONE',  ( 0.000000000000000000, 0.000000000000000000, 400.0000000000000000 ) ) ;
#33 = CARTESIAN_POINT ( 'NONE',  ( 0.000000000000000000, 0.000000000000000000, 7.000000000000000000 ) ) ;
#34 = CARTESIAN_POINT ( 'NONE',  ( 6.250000000000000000, 7.654042494670957606E-16, 400.0000000000000000 ) ) ;
#35 = APPROVAL_PERSON_ORGANIZATION ( #16, #157, #186 ) ;
#36 = APPLICATION_CONTEXT ( 'configuration controlled 3d designs of mechanical parts and assemblies' ) ;
#37 = APPROVAL_ROLE ( '' ) ;
#38 = APPROVAL_DATE_TIME ( #84, #165 ) ;
#39 = DIRECTION ( 'NONE',  ( 1.000000000000000000, 0.000000000000000000, 0.000000000000000000 ) ) ;
#40 = VERTEX_POINT ( 'NONE', #232 ) ;
#41 = VERTEX_POINT ( 'NONE', #141 ) ;
#42 = CALENDAR_DATE ( 2023, 13, 2 ) ;
#43 = ORIENTED_EDGE ( 'NONE', *, *, #176, .T. ) ;
#44 = CC_DESIGN_DATE_AND_TIME_ASSIGNMENT ( #129, #123, ( #219 ) ) ;
#45 = CIRCLE ( 'NONE', #75, 6.250000000000000000 ) ;
#46 = PRODUCT_DEFINITION_FORMATION_WITH_SPECIFIED_SOURCE ( 'LIBOVOLNÝ', '', #214, .NOT_KNOWN. ) ;
#47 = EDGE_LOOP ( 'NONE', ( #106, #79 ) ) ;
#48 = PERSON_AND_ORGANIZATION ( #105, #194 ) ;
#49 = CARTESIAN_POINT ( 'NONE',  ( 6.250000000000000000, 7.654042494670957606E-16, 7.000000000000000000 ) ) ;
#50 = DIRECTION ( 'NONE',  ( -1.000000000000000000, 0.000000000000000000, 0.000000000000000000 ) ) ;
#51 = COORDINATED_UNIVERSAL_TIME_OFFSET ( 1, 0, .AHEAD. ) ;
#52 = CARTESIAN_POINT ( 'NONE',  ( 9.000000000000000000, 1.102182119232617714E-15, 7.000000000000000000 ) ) ;
#53 = DIRECTION ( 'NONE',  ( 0.000000000000000000, 0.000000000000000000, 1.000000000000000000 ) ) ;
#54 = DIRECTION ( 'NONE',  ( -0.000000000000000000, -0.000000000000000000, -1.000000000000000000 ) ) ;
#55 = EDGE_CURVE ( 'NONE', #121, #40, #10, .T. ) ;
#56 = CIRCLE ( 'NONE', #150, 6.250000000000000000 ) ;
#57 = DIRECTION ( 'NONE',  ( 0.000000000000000000, 0.000000000000000000, 1.000000000000000000 ) ) ;
#58 = VERTEX_POINT ( 'NONE', #3 ) ;
#59 = CC_DESIGN_APPROVAL ( #165, ( #219 ) ) ;
#60 = AXIS2_PLACEMENT_3D ( 'NONE', #32, #241, #39 ) ;
#61 = COORDINATED_UNIVERSAL_TIME_OFFSET ( 1, 0, .AHEAD. ) ;
#62 = ORIENTED_EDGE ( 'NONE', *, *, #254, .T. ) ;
#63 = EDGE_LOOP ( 'NONE', ( #188, #162, #85, #43 ) ) ;
#64 = CLOSED_SHELL ( 'NONE', ( #140, #190, #71, #204, #76, #122, #170 ) ) ;
#65 = AXIS2_PLACEMENT_3D ( 'NONE', #148, #124, #103 ) ;
#66 = FACE_OUTER_BOUND ( 'NONE', #88, .T. ) ;
#67 = APPROVAL_DATE_TIME ( #247, #157 ) ;
#68 = PLANE ( 'NONE',  #109 ) ;
#69 = DIRECTION ( 'NONE',  ( 0.000000000000000000, 0.000000000000000000, 1.000000000000000000 ) ) ;
#70 = FACE_OUTER_BOUND ( 'NONE', #166, .T. ) ;
#71 = ADVANCED_FACE ( 'NONE', ( #24 ), #175, .T. ) ;
#72 = LOCAL_TIME ( 11, 17, 48.00000000000000000, #189 ) ;
#73 = LINE ( 'NONE', #52, #172 ) ;
#74 = FACE_BOUND ( 'NONE', #104, .T. ) ;
#75 = AXIS2_PLACEMENT_3D ( 'NONE', #198, #69, #169 ) ;
#76 = ADVANCED_FACE ( 'NONE', ( #30 ), #68, .F. ) ;
#77 = VERTEX_POINT ( 'NONE', #215 ) ;
#78 = CIRCLE ( 'NONE', #237, 6.250000000000000000 ) ;
#79 = ORIENTED_EDGE ( 'NONE', *, *, #249, .F. ) ;
#80 = ORIENTED_EDGE ( 'NONE', *, *, #151, .F. ) ;
#81 = CALENDAR_DATE ( 2023, 13, 2 ) ;
#82 = DESIGN_CONTEXT ( 'detailed design', #36, 'design' ) ;
#83 = CC_DESIGN_PERSON_AND_ORGANIZATION_ASSIGNMENT ( #195, #164, ( #219 ) ) ;
#84 = DATE_AND_TIME ( #81, #72 ) ;
#85 = ORIENTED_EDGE ( 'NONE', *, *, #151, .T. ) ;
#86 = PERSON_AND_ORGANIZATION_ROLE ( 'classification_officer' ) ;
#87 = APPLICATION_PROTOCOL_DEFINITION ( 'international standard', 'config_control_design', 1994, #11 ) ;
#88 = EDGE_LOOP ( 'NONE', ( #62, #211 ) ) ;
#89 = CYLINDRICAL_SURFACE ( 'NONE', #202, 6.250000000000000000 ) ;
#90 = EDGE_LOOP ( 'NONE', ( #216, #185, #161, #228 ) ) ;
#91 = PERSON_AND_ORGANIZATION ( #105, #194 ) ;
#92 = CARTESIAN_POINT ( 'NONE',  ( 0.000000000000000000, 0.000000000000000000, 400.0000000000000000 ) ) ;
#93 = CARTESIAN_POINT ( 'NONE',  ( -6.250000000000000000, 0.000000000000000000, 400.0000000000000000 ) ) ;
#94 = DATE_AND_TIME ( #115, #102 ) ;
#95 = DIRECTION ( 'NONE',  ( -1.000000000000000000, 0.000000000000000000, 0.000000000000000000 ) ) ;
#96 = CARTESIAN_POINT ( 'NONE',  ( -9.000000000000000000, 0.000000000000000000, 7.000000000000000000 ) ) ;
#97 = CIRCLE ( 'NONE', #136, 9.000000000000000000 ) ;
#98 = APPROVAL_DATE_TIME ( #119, #143 ) ;
#99 = CALENDAR_DATE ( 2023, 13, 2 ) ;
#100 = APPROVAL_STATUS ( 'not_yet_approved' ) ;
#101 = EDGE_CURVE ( 'NONE', #20, #41, #45, .T. ) ;
#102 = LOCAL_TIME ( 11, 17, 48.00000000000000000, #51 ) ;
#103 = DIRECTION ( 'NONE',  ( 1.000000000000000000, 0.000000000000000000, 0.000000000000000000 ) ) ;
#104 = EDGE_LOOP ( 'NONE', ( #17, #242 ) ) ;
#105 = PERSON ( 'NEURÈENÝ', 'NEURÈENÝ', 'NEURÈENÝ', ('NEURÈENÝ'), ('NEURÈENÝ'), ('NEURÈENÝ') ) ;
#106 = ORIENTED_EDGE ( 'NONE', *, *, #55, .F. ) ;
#107 = PERSON_AND_ORGANIZATION_ROLE ( 'design_owner' ) ;
#108 = ORIENTED_EDGE ( 'NONE', *, *, #135, .F. ) ;
#109 = AXIS2_PLACEMENT_3D ( 'NONE', #114, #133, #201 ) ;
#110 = CARTESIAN_POINT ( 'NONE',  ( -9.000000000000000000, 0.000000000000000000, 0.000000000000000000 ) ) ;
#111 = DIRECTION ( 'NONE',  ( -1.000000000000000000, 0.000000000000000000, 0.000000000000000000 ) ) ;
#112 = CC_DESIGN_APPROVAL ( #157, ( #46 ) ) ;
#113 = CARTESIAN_POINT ( 'NONE',  ( 0.000000000000000000, 0.000000000000000000, 0.000000000000000000 ) ) ;
#114 = CARTESIAN_POINT ( 'NONE',  ( 0.000000000000000000, 0.000000000000000000, 0.000000000000000000 ) ) ;
#115 = CALENDAR_DATE ( 2023, 13, 2 ) ;
#116 = AXIS2_PLACEMENT_3D ( 'NONE', #29, #200, #8 ) ;
#117 = LOCAL_TIME ( 11, 17, 48.00000000000000000, #23 ) ;
#118 = DIRECTION ( 'NONE',  ( -0.000000000000000000, -0.000000000000000000, -1.000000000000000000 ) ) ;
#119 = DATE_AND_TIME ( #99, #132 ) ;
#120 = SHAPE_DEFINITION_REPRESENTATION ( #13, #131 ) ;
#121 = VERTEX_POINT ( 'NONE', #110 ) ;
#122 = ADVANCED_FACE ( 'NONE', ( #26 ), #89, .T. ) ;
#123 = DATE_TIME_ROLE ( 'creation_date' ) ;
#124 = DIRECTION ( 'NONE',  ( 0.000000000000000000, 0.000000000000000000, 1.000000000000000000 ) ) ;
#125 =( NAMED_UNIT ( * ) SI_UNIT ( $, .STERADIAN. ) SOLID_ANGLE_UNIT ( ) );
#126 = ORIENTED_EDGE ( 'NONE', *, *, #101, .T. ) ;
#127 = PERSON_AND_ORGANIZATION_ROLE ( 'design_supplier' ) ;
#128 = ORIENTED_EDGE ( 'NONE', *, *, #196, .T. ) ;
#129 = DATE_AND_TIME ( #42, #238 ) ;
#130 = CC_DESIGN_PERSON_AND_ORGANIZATION_ASSIGNMENT ( #209, #167, ( #46 ) ) ;
#131 = ADVANCED_BREP_SHAPE_REPRESENTATION ( '83d3', ( #27, #65 ), #160 ) ;
#132 = LOCAL_TIME ( 11, 17, 48.00000000000000000, #187 ) ;
#133 = DIRECTION ( 'NONE',  ( 0.000000000000000000, 0.000000000000000000, 1.000000000000000000 ) ) ;
#134 = DIRECTION ( 'NONE',  ( 0.000000000000000000, 0.000000000000000000, 1.000000000000000000 ) ) ;
#135 = EDGE_CURVE ( 'NONE', #146, #197, #78, .T. ) ;
#136 = AXIS2_PLACEMENT_3D ( 'NONE', #158, #225, #239 ) ;
#137 = SECURITY_CLASSIFICATION ( '', '', #19 ) ;
#138 = DIRECTION ( 'NONE',  ( -0.000000000000000000, -0.000000000000000000, -1.000000000000000000 ) ) ;
#139 = CYLINDRICAL_SURFACE ( 'NONE', #116, 6.250000000000000000 ) ;
#140 = ADVANCED_FACE ( 'NONE', ( #70 ), #139, .T. ) ;
#141 = CARTESIAN_POINT ( 'NONE',  ( -6.250000000000000000, 0.000000000000000000, 7.000000000000000000 ) ) ;
#142 = DIRECTION ( 'NONE',  ( 0.000000000000000000, 0.000000000000000000, 1.000000000000000000 ) ) ;
#143 = APPROVAL ( #174, 'NEURÈENÝ' ) ;
#144 = DIRECTION ( 'NONE',  ( 0.000000000000000000, 0.000000000000000000, 1.000000000000000000 ) ) ;
#145 = CIRCLE ( 'NONE', #60, 6.250000000000000000 ) ;
#146 = VERTEX_POINT ( 'NONE', #181 ) ;
#147 = APPROVAL_ROLE ( '' ) ;
#148 = CARTESIAN_POINT ( 'NONE',  ( 0.000000000000000000, 0.000000000000000000, 0.000000000000000000 ) ) ;
#149 = CARTESIAN_POINT ( 'NONE',  ( 0.000000000000000000, 0.000000000000000000, 400.0000000000000000 ) ) ;
#150 = AXIS2_PLACEMENT_3D ( 'NONE', #173, #142, #252 ) ;
#151 = EDGE_CURVE ( 'NONE', #197, #41, #240, .T. ) ;
#152 = CC_DESIGN_SECURITY_CLASSIFICATION ( #137, ( #46 ) ) ;
#153 = CYLINDRICAL_SURFACE ( 'NONE', #25, 9.000000000000000000 ) ;
#154 = DATE_TIME_ROLE ( 'classification_date' ) ;
#155 = CARTESIAN_POINT ( 'NONE',  ( 0.000000000000000000, 0.000000000000000000, 7.000000000000000000 ) ) ;
#156 = CC_DESIGN_APPROVAL ( #143, ( #137 ) ) ;
#157 = APPROVAL ( #100, 'NEURÈENÝ' ) ;
#158 = CARTESIAN_POINT ( 'NONE',  ( 0.000000000000000000, 0.000000000000000000, 7.000000000000000000 ) ) ;
#159 = VECTOR ( 'NONE', #138, 1000.000000000000000 ) ;
#160 =( GEOMETRIC_REPRESENTATION_CONTEXT ( 3 ) GLOBAL_UNCERTAINTY_ASSIGNED_CONTEXT ( ( #234 ) ) GLOBAL_UNIT_ASSIGNED_CONTEXT ( ( #207, #213, #125 ) ) REPRESENTATION_CONTEXT ( 'NONE', 'WORKASPACE' ) );
#161 = ORIENTED_EDGE ( 'NONE', *, *, #184, .T. ) ;
#162 = ORIENTED_EDGE ( 'NONE', *, *, #254, .F. ) ;
#163 = ORIENTED_EDGE ( 'NONE', *, *, #180, .T. ) ;
#164 = PERSON_AND_ORGANIZATION_ROLE ( 'creator' ) ;
#165 = APPROVAL ( #210, 'NEURÈENÝ' ) ;
#166 = EDGE_LOOP ( 'NONE', ( #108, #243, #126, #80 ) ) ;
#167 = PERSON_AND_ORGANIZATION_ROLE ( 'creator' ) ;
#168 = MECHANICAL_CONTEXT ( 'NONE', #11, 'mechanical' ) ;
#169 = DIRECTION ( 'NONE',  ( 1.000000000000000000, 0.000000000000000000, 0.000000000000000000 ) ) ;
#170 = ADVANCED_FACE ( 'NONE', ( #66 ), #28, .T. ) ;
#171 = CALENDAR_DATE ( 2023, 13, 2 ) ;
#172 = VECTOR ( 'NONE', #54, 1000.000000000000000 ) ;
#173 = CARTESIAN_POINT ( 'NONE',  ( 0.000000000000000000, 0.000000000000000000, 7.000000000000000000 ) ) ;
#174 = APPROVAL_STATUS ( 'not_yet_approved' ) ;
#175 = CYLINDRICAL_SURFACE ( 'NONE', #5, 9.000000000000000000 ) ;
#176 = EDGE_CURVE ( 'NONE', #41, #20, #56, .T. ) ;
#177 = AXIS2_PLACEMENT_3D ( 'NONE', #113, #236, #220 ) ;
#178 = DIRECTION ( 'NONE',  ( 1.000000000000000000, 0.000000000000000000, -0.000000000000000000 ) ) ;
#179 = PLANE ( 'NONE',  #22 ) ;
#180 = EDGE_CURVE ( 'NONE', #58, #77, #182, .T. ) ;
#181 = CARTESIAN_POINT ( 'NONE',  ( 6.250000000000000000, 7.654042494670957606E-16, 400.0000000000000000 ) ) ;
#182 = CIRCLE ( 'NONE', #253, 9.000000000000000000 ) ;
#183 = DIRECTION ( 'NONE',  ( -0.000000000000000000, -0.000000000000000000, -1.000000000000000000 ) ) ;
#184 = EDGE_CURVE ( 'NONE', #58, #121, #203, .T. ) ;
#185 = ORIENTED_EDGE ( 'NONE', *, *, #180, .F. ) ;
#186 = APPROVAL_ROLE ( '' ) ;
#187 = COORDINATED_UNIVERSAL_TIME_OFFSET ( 1, 0, .AHEAD. ) ;
#188 = ORIENTED_EDGE ( 'NONE', *, *, #212, .F. ) ;
#189 = COORDINATED_UNIVERSAL_TIME_OFFSET ( 1, 0, .AHEAD. ) ;
#190 = ADVANCED_FACE ( 'NONE', ( #14 ), #153, .T. ) ;
#191 = PERSON_AND_ORGANIZATION ( #105, #194 ) ;
#192 = ORIENTED_EDGE ( 'NONE', *, *, #249, .T. ) ;
#193 = EDGE_LOOP ( 'NONE', ( #18, #128, #192, #245 ) ) ;
#194 = ORGANIZATION ( 'NEURÈENÝ', 'NEURÈENÝ', '' ) ;
#195 = PERSON_AND_ORGANIZATION ( #105, #194 ) ;
#196 = EDGE_CURVE ( 'NONE', #77, #40, #73, .T. ) ;
#197 = VERTEX_POINT ( 'NONE', #93 ) ;
#198 = CARTESIAN_POINT ( 'NONE',  ( 0.000000000000000000, 0.000000000000000000, 7.000000000000000000 ) ) ;
#199 = CARTESIAN_POINT ( 'NONE',  ( 0.000000000000000000, 0.000000000000000000, 7.000000000000000000 ) ) ;
#200 = DIRECTION ( 'NONE',  ( -0.000000000000000000, -0.000000000000000000, -1.000000000000000000 ) ) ;
#201 = DIRECTION ( 'NONE',  ( 1.000000000000000000, 0.000000000000000000, -0.000000000000000000 ) ) ;
#202 = AXIS2_PLACEMENT_3D ( 'NONE', #246, #248, #50 ) ;
#203 = LINE ( 'NONE', #96, #223 ) ;
#204 = ADVANCED_FACE ( 'NONE', ( #74, #205 ), #179, .T. ) ;
#205 = FACE_OUTER_BOUND ( 'NONE', #244, .T. ) ;
#206 = CC_DESIGN_PERSON_AND_ORGANIZATION_ASSIGNMENT ( #191, #86, ( #137 ) ) ;
#207 =( LENGTH_UNIT ( ) NAMED_UNIT ( * ) SI_UNIT ( .MILLI., .METRE. ) );
#208 = CC_DESIGN_PERSON_AND_ORGANIZATION_ASSIGNMENT ( #21, #107, ( #214 ) ) ;
#209 = PERSON_AND_ORGANIZATION ( #105, #194 ) ;
#210 = APPROVAL_STATUS ( 'not_yet_approved' ) ;
#211 = ORIENTED_EDGE ( 'NONE', *, *, #135, .T. ) ;
#212 = EDGE_CURVE ( 'NONE', #146, #20, #251, .T. ) ;
#213 =( NAMED_UNIT ( * ) PLANE_ANGLE_UNIT ( ) SI_UNIT ( $, .RADIAN. ) );
#214 = PRODUCT ( '83d3', '83d3', '', ( #168 ) ) ;
#215 = CARTESIAN_POINT ( 'NONE',  ( 9.000000000000000000, 1.102182119232617714E-15, 7.000000000000000000 ) ) ;
#216 = ORIENTED_EDGE ( 'NONE', *, *, #196, .F. ) ;
#217 = VECTOR ( 'NONE', #183, 1000.000000000000000 ) ;
#218 = APPROVAL_PERSON_ORGANIZATION ( #91, #143, #37 ) ;
#219 = PRODUCT_DEFINITION ( 'NEZNÁMÝ', '', #46, #82 ) ;
#220 = DIRECTION ( 'NONE',  ( 1.000000000000000000, 0.000000000000000000, 0.000000000000000000 ) ) ;
#221 = DIRECTION ( 'NONE',  ( 1.000000000000000000, 0.000000000000000000, 0.000000000000000000 ) ) ;
#222 = DIRECTION ( 'NONE',  ( 1.000000000000000000, 0.000000000000000000, 0.000000000000000000 ) ) ;
#223 = VECTOR ( 'NONE', #224, 1000.000000000000000 ) ;
#224 = DIRECTION ( 'NONE',  ( -0.000000000000000000, -0.000000000000000000, -1.000000000000000000 ) ) ;
#225 = DIRECTION ( 'NONE',  ( 0.000000000000000000, 0.000000000000000000, 1.000000000000000000 ) ) ;
#226 = EDGE_CURVE ( 'NONE', #77, #58, #97, .T. ) ;
#227 = CARTESIAN_POINT ( 'NONE',  ( 0.000000000000000000, 0.000000000000000000, 0.000000000000000000 ) ) ;
#228 = ORIENTED_EDGE ( 'NONE', *, *, #55, .T. ) ;
#229 = ORIENTED_EDGE ( 'NONE', *, *, #226, .T. ) ;
#230 = APPLICATION_PROTOCOL_DEFINITION ( 'international standard', 'config_control_design', 1994, #36 ) ;
#231 = PRODUCT_RELATED_PRODUCT_CATEGORY ( 'detail', '', ( #214 ) ) ;
#232 = CARTESIAN_POINT ( 'NONE',  ( 9.000000000000000000, 1.102182119232617714E-15, 0.000000000000000000 ) ) ;
#233 = APPROVAL_PERSON_ORGANIZATION ( #1, #165, #147 ) ;
#234 = UNCERTAINTY_MEASURE_WITH_UNIT (LENGTH_MEASURE( 1.000000000000000082E-05 ), #207, 'distance_accuracy_value', 'NONE');
#235 = CC_DESIGN_PERSON_AND_ORGANIZATION_ASSIGNMENT ( #48, #127, ( #46 ) ) ;
#236 = DIRECTION ( 'NONE',  ( 0.000000000000000000, 0.000000000000000000, 1.000000000000000000 ) ) ;
#237 = AXIS2_PLACEMENT_3D ( 'NONE', #92, #6, #250 ) ;
#238 = LOCAL_TIME ( 11, 17, 48.00000000000000000, #61 ) ;
#239 = DIRECTION ( 'NONE',  ( 1.000000000000000000, 0.000000000000000000, 0.000000000000000000 ) ) ;
#240 = LINE ( 'NONE', #2, #159 ) ;
#241 = DIRECTION ( 'NONE',  ( 0.000000000000000000, 0.000000000000000000, 1.000000000000000000 ) ) ;
#242 = ORIENTED_EDGE ( 'NONE', *, *, #101, .F. ) ;
#243 = ORIENTED_EDGE ( 'NONE', *, *, #212, .T. ) ;
#244 = EDGE_LOOP ( 'NONE', ( #163, #229 ) ) ;
#245 = ORIENTED_EDGE ( 'NONE', *, *, #184, .F. ) ;
#246 = CARTESIAN_POINT ( 'NONE',  ( 0.000000000000000000, 0.000000000000000000, 400.0000000000000000 ) ) ;
#247 = DATE_AND_TIME ( #171, #117 ) ;
#248 = DIRECTION ( 'NONE',  ( -0.000000000000000000, -0.000000000000000000, -1.000000000000000000 ) ) ;
#249 = EDGE_CURVE ( 'NONE', #40, #121, #15, .T. ) ;
#250 = DIRECTION ( 'NONE',  ( 1.000000000000000000, 0.000000000000000000, 0.000000000000000000 ) ) ;
#251 = LINE ( 'NONE', #34, #217 ) ;
#252 = DIRECTION ( 'NONE',  ( 1.000000000000000000, 0.000000000000000000, 0.000000000000000000 ) ) ;
#253 = AXIS2_PLACEMENT_3D ( 'NONE', #31, #144, #221 ) ;
#254 = EDGE_CURVE ( 'NONE', #197, #146, #145, .T. ) ;
#255 = AXIS2_PLACEMENT_3D ( 'NONE', #149, #134, #4 ) ;
ENDSEC;
END-ISO-10303-21;
