ISO-10303-21;
HEADER;
FILE_DESCRIPTION (( 'STEP AP203' ),
    '1' );
FILE_NAME ('728f.STEP',
    '2023-01-31T14:31:13',
    ( '' ),
    ( '' ),
    'SwSTEP 2.0',
    'SolidWorks 2019',
    '' );
FILE_SCHEMA (( 'CONFIG_CONTROL_DESIGN' ));
ENDSEC;

DATA;
#1 = CARTESIAN_POINT ( 'NONE',  ( 0.000000000000000000, 0.000000000000000000, 0.000000000000000000 ) ) ;
#2 = LINE ( 'NONE', #201, #155 ) ;
#3 = ADVANCED_FACE ( 'NONE', ( #177 ), #133, .T. ) ;
#4 = FACE_OUTER_BOUND ( 'NONE', #245, .T. ) ;
#5 = CIRCLE ( 'NONE', #82, 0.5000000000000000000 ) ;
#6 = CC_DESIGN_APPROVAL ( #202, ( #64 ) ) ;
#7 = CARTESIAN_POINT ( 'NONE',  ( -0.5000000000000000000, 0.000000000000000000, 100.0000000000000000 ) ) ;
#8 = PERSON_AND_ORGANIZATION ( #139, #34 ) ;
#9 = DATE_AND_TIME ( #97, #55 ) ;
#10 = ORIENTED_EDGE ( 'NONE', *, *, #226, .T. ) ;
#11 = CALENDAR_DATE ( 2023, 31, 1 ) ;
#12 = VERTEX_POINT ( 'NONE', #108 ) ;
#13 = PRODUCT_DEFINITION_FORMATION_WITH_SPECIFIED_SOURCE ( 'LIBOVOLNÝ', '', #67, .NOT_KNOWN. ) ;
#14 = ORIENTED_EDGE ( 'NONE', *, *, #210, .T. ) ;
#15 = CARTESIAN_POINT ( 'NONE',  ( 0.000000000000000000, 0.000000000000000000, 1.199999999999999956 ) ) ;
#16 = CARTESIAN_POINT ( 'NONE',  ( 0.000000000000000000, 0.000000000000000000, 100.0000000000000000 ) ) ;
#17 = LOCAL_TIME ( 15, 31, 13.00000000000000000, #78 ) ;
#18 = FACE_OUTER_BOUND ( 'NONE', #125, .T. ) ;
#19 = CIRCLE ( 'NONE', #161, 1.250000000000000000 ) ;
#20 = DIRECTION ( 'NONE',  ( 1.000000000000000000, 0.000000000000000000, -0.000000000000000000 ) ) ;
#21 = DIRECTION ( 'NONE',  ( -1.000000000000000000, 0.000000000000000000, 0.000000000000000000 ) ) ;
#22 = DATE_TIME_ROLE ( 'classification_date' ) ;
#23 = PERSON_AND_ORGANIZATION ( #139, #34 ) ;
#24 = COORDINATED_UNIVERSAL_TIME_OFFSET ( 1, 0, .AHEAD. ) ;
#25 = EDGE_LOOP ( 'NONE', ( #211, #248 ) ) ;
#26 = AXIS2_PLACEMENT_3D ( 'NONE', #16, #192, #28 ) ;
#27 = VERTEX_POINT ( 'NONE', #174 ) ;
#28 = DIRECTION ( 'NONE',  ( 1.000000000000000000, 0.000000000000000000, 0.000000000000000000 ) ) ;
#29 = CARTESIAN_POINT ( 'NONE',  ( 0.000000000000000000, 0.000000000000000000, 0.000000000000000000 ) ) ;
#30 = CARTESIAN_POINT ( 'NONE',  ( 0.000000000000000000, 0.000000000000000000, 1.199999999999999956 ) ) ;
#31 = ORIENTED_EDGE ( 'NONE', *, *, #131, .F. ) ;
#32 = PRODUCT_RELATED_PRODUCT_CATEGORY ( 'detail', '', ( #67 ) ) ;
#33 = FACE_OUTER_BOUND ( 'NONE', #191, .T. ) ;
#34 = ORGANIZATION ( 'NEURÈENÝ', 'NEURÈENÝ', '' ) ;
#35 = APPLICATION_PROTOCOL_DEFINITION ( 'international standard', 'config_control_design', 1994, #189 ) ;
#36 = CARTESIAN_POINT ( 'NONE',  ( 1.250000000000000000, 1.530808498934191571E-16, 0.000000000000000000 ) ) ;
#37 = COORDINATED_UNIVERSAL_TIME_OFFSET ( 1, 0, .AHEAD. ) ;
#38 = EDGE_CURVE ( 'NONE', #188, #27, #115, .T. ) ;
#39 = COORDINATED_UNIVERSAL_TIME_OFFSET ( 1, 0, .AHEAD. ) ;
#40 = CIRCLE ( 'NONE', #89, 1.250000000000000000 ) ;
#41 = APPROVAL_DATE_TIME ( #163, #121 ) ;
#42 = LOCAL_TIME ( 15, 31, 13.00000000000000000, #39 ) ;
#43 = DATE_AND_TIME ( #11, #17 ) ;
#44 = ORIENTED_EDGE ( 'NONE', *, *, #38, .T. ) ;
#45 = VECTOR ( 'NONE', #56, 1000.000000000000000 ) ;
#46 = ORIENTED_EDGE ( 'NONE', *, *, #197, .T. ) ;
#47 = CARTESIAN_POINT ( 'NONE',  ( -0.5000000000000000000, 0.000000000000000000, 1.199999999999999956 ) ) ;
#48 = VERTEX_POINT ( 'NONE', #148 ) ;
#49 = CARTESIAN_POINT ( 'NONE',  ( 0.000000000000000000, 0.000000000000000000, 100.0000000000000000 ) ) ;
#50 = APPROVAL_PERSON_ORGANIZATION ( #233, #202, #93 ) ;
#51 = FACE_OUTER_BOUND ( 'NONE', #68, .T. ) ;
#52 = ADVANCED_FACE ( 'NONE', ( #18 ), #255, .T. ) ;
#53 = DIRECTION ( 'NONE',  ( 1.000000000000000000, 0.000000000000000000, 0.000000000000000000 ) ) ;
#54 = AXIS2_PLACEMENT_3D ( 'NONE', #29, #215, #20 ) ;
#55 = LOCAL_TIME ( 15, 31, 13.00000000000000000, #24 ) ;
#56 = DIRECTION ( 'NONE',  ( -0.000000000000000000, -0.000000000000000000, -1.000000000000000000 ) ) ;
#57 = EDGE_CURVE ( 'NONE', #12, #103, #126, .T. ) ;
#58 = PERSON_AND_ORGANIZATION_ROLE ( 'design_owner' ) ;
#59 = LINE ( 'NONE', #7, #185 ) ;
#60 = PERSON_AND_ORGANIZATION_ROLE ( 'classification_officer' ) ;
#61 = PERSON_AND_ORGANIZATION ( #139, #34 ) ;
#62 = EDGE_LOOP ( 'NONE', ( #123, #249 ) ) ;
#63 = ORIENTED_EDGE ( 'NONE', *, *, #38, .F. ) ;
#64 = SECURITY_CLASSIFICATION ( '', '', #186 ) ;
#65 = DIRECTION ( 'NONE',  ( -0.000000000000000000, -0.000000000000000000, -1.000000000000000000 ) ) ;
#66 = CC_DESIGN_PERSON_AND_ORGANIZATION_ASSIGNMENT ( #95, #162, ( #74 ) ) ;
#67 = PRODUCT ( '728f', '728f', '', ( #182 ) ) ;
#68 = EDGE_LOOP ( 'NONE', ( #128, #46, #98, #228 ) ) ;
#69 = FACE_OUTER_BOUND ( 'NONE', #235, .T. ) ;
#70 = DIRECTION ( 'NONE',  ( 0.000000000000000000, 0.000000000000000000, 1.000000000000000000 ) ) ;
#71 = PLANE ( 'NONE',  #111 ) ;
#72 = AXIS2_PLACEMENT_3D ( 'NONE', #15, #146, #234 ) ;
#73 =( LENGTH_UNIT ( ) NAMED_UNIT ( * ) SI_UNIT ( .MILLI., .METRE. ) );
#74 = PRODUCT_DEFINITION ( 'NEZNÁMÝ', '', #13, #218 ) ;
#75 = CARTESIAN_POINT ( 'NONE',  ( 0.000000000000000000, 0.000000000000000000, 1.199999999999999956 ) ) ;
#76 = DATE_AND_TIME ( #166, #42 ) ;
#77 = SHAPE_DEFINITION_REPRESENTATION ( #102, #88 ) ;
#78 = COORDINATED_UNIVERSAL_TIME_OFFSET ( 1, 0, .AHEAD. ) ;
#79 = EDGE_LOOP ( 'NONE', ( #44, #142 ) ) ;
#80 = ADVANCED_FACE ( 'NONE', ( #51 ), #85, .T. ) ;
#81 = CARTESIAN_POINT ( 'NONE',  ( 0.000000000000000000, 0.000000000000000000, 100.0000000000000000 ) ) ;
#82 = AXIS2_PLACEMENT_3D ( 'NONE', #195, #198, #147 ) ;
#83 = AXIS2_PLACEMENT_3D ( 'NONE', #75, #113, #21 ) ;
#84 = AXIS2_PLACEMENT_3D ( 'NONE', #220, #136, #92 ) ;
#85 = CYLINDRICAL_SURFACE ( 'NONE', #109, 0.5000000000000000000 ) ;
#86 = DIRECTION ( 'NONE',  ( 0.000000000000000000, 0.000000000000000000, 1.000000000000000000 ) ) ;
#87 = ORIENTED_EDGE ( 'NONE', *, *, #221, .T. ) ;
#88 = ADVANCED_BREP_SHAPE_REPRESENTATION ( '728f', ( #156, #84 ), #135 ) ;
#89 = AXIS2_PLACEMENT_3D ( 'NONE', #1, #243, #199 ) ;
#90 = EDGE_CURVE ( 'NONE', #27, #188, #5, .T. ) ;
#91 = DIRECTION ( 'NONE',  ( 0.000000000000000000, 0.000000000000000000, 1.000000000000000000 ) ) ;
#92 = DIRECTION ( 'NONE',  ( 1.000000000000000000, 0.000000000000000000, 0.000000000000000000 ) ) ;
#93 = APPROVAL_ROLE ( '' ) ;
#94 = ORIENTED_EDGE ( 'NONE', *, *, #214, .F. ) ;
#95 = PERSON_AND_ORGANIZATION ( #139, #34 ) ;
#96 = VERTEX_POINT ( 'NONE', #47 ) ;
#97 = CALENDAR_DATE ( 2023, 31, 1 ) ;
#98 = ORIENTED_EDGE ( 'NONE', *, *, #193, .T. ) ;
#99 = AXIS2_PLACEMENT_3D ( 'NONE', #151, #222, #241 ) ;
#100 = CC_DESIGN_PERSON_AND_ORGANIZATION_ASSIGNMENT ( #227, #60, ( #64 ) ) ;
#101 = DIRECTION ( 'NONE',  ( 1.000000000000000000, 0.000000000000000000, -0.000000000000000000 ) ) ;
#102 = PRODUCT_DEFINITION_SHAPE ( 'NONE', 'NONE',  #74 ) ;
#103 = VERTEX_POINT ( 'NONE', #216 ) ;
#104 = AXIS2_PLACEMENT_3D ( 'NONE', #105, #70, #194 ) ;
#105 = CARTESIAN_POINT ( 'NONE',  ( 0.000000000000000000, 0.000000000000000000, 1.199999999999999956 ) ) ;
#106 = DIRECTION ( 'NONE',  ( 0.000000000000000000, 0.000000000000000000, 1.000000000000000000 ) ) ;
#107 = ADVANCED_FACE ( 'NONE', ( #150 ), #129, .F. ) ;
#108 = CARTESIAN_POINT ( 'NONE',  ( 1.250000000000000000, 1.530808498934191571E-16, 1.199999999999999956 ) ) ;
#109 = AXIS2_PLACEMENT_3D ( 'NONE', #170, #65, #130 ) ;
#110 = DIRECTION ( 'NONE',  ( -0.000000000000000000, -0.000000000000000000, -1.000000000000000000 ) ) ;
#111 = AXIS2_PLACEMENT_3D ( 'NONE', #224, #118, #134 ) ;
#112 = CC_DESIGN_PERSON_AND_ORGANIZATION_ASSIGNMENT ( #124, #122, ( #13 ) ) ;
#113 = DIRECTION ( 'NONE',  ( -0.000000000000000000, -0.000000000000000000, -1.000000000000000000 ) ) ;
#114 = FACE_BOUND ( 'NONE', #62, .T. ) ;
#115 = CIRCLE ( 'NONE', #26, 0.5000000000000000000 ) ;
#116 = CARTESIAN_POINT ( 'NONE',  ( 0.5000000000000000000, 6.123233995736766036E-17, 1.199999999999999956 ) ) ;
#117 = CIRCLE ( 'NONE', #99, 0.5000000000000000000 ) ;
#118 = DIRECTION ( 'NONE',  ( 0.000000000000000000, 0.000000000000000000, 1.000000000000000000 ) ) ;
#119 = DATE_AND_TIME ( #187, #253 ) ;
#120 = APPROVAL_ROLE ( '' ) ;
#121 = APPROVAL ( #229, 'NEURÈENÝ' ) ;
#122 = PERSON_AND_ORGANIZATION_ROLE ( 'creator' ) ;
#123 = ORIENTED_EDGE ( 'NONE', *, *, #226, .F. ) ;
#124 = PERSON_AND_ORGANIZATION ( #139, #34 ) ;
#125 = EDGE_LOOP ( 'NONE', ( #94, #237, #168, #209 ) ) ;
#126 = CIRCLE ( 'NONE', #104, 1.250000000000000000 ) ;
#127 = AXIS2_PLACEMENT_3D ( 'NONE', #152, #160, #53 ) ;
#128 = ORIENTED_EDGE ( 'NONE', *, *, #90, .F. ) ;
#129 = PLANE ( 'NONE',  #54 ) ;
#130 = DIRECTION ( 'NONE',  ( -1.000000000000000000, 0.000000000000000000, 0.000000000000000000 ) ) ;
#131 = EDGE_CURVE ( 'NONE', #103, #48, #251, .T. ) ;
#132 = DIRECTION ( 'NONE',  ( -0.000000000000000000, -0.000000000000000000, -1.000000000000000000 ) ) ;
#133 = PLANE ( 'NONE',  #171 ) ;
#134 = DIRECTION ( 'NONE',  ( 1.000000000000000000, 0.000000000000000000, -0.000000000000000000 ) ) ;
#135 =( GEOMETRIC_REPRESENTATION_CONTEXT ( 3 ) GLOBAL_UNCERTAINTY_ASSIGNED_CONTEXT ( ( #154 ) ) GLOBAL_UNIT_ASSIGNED_CONTEXT ( ( #73, #157, #204 ) ) REPRESENTATION_CONTEXT ( 'NONE', 'WORKASPACE' ) );
#136 = DIRECTION ( 'NONE',  ( 0.000000000000000000, 0.000000000000000000, 1.000000000000000000 ) ) ;
#137 = CYLINDRICAL_SURFACE ( 'NONE', #83, 1.250000000000000000 ) ;
#138 = DIRECTION ( 'NONE',  ( -0.000000000000000000, -0.000000000000000000, -1.000000000000000000 ) ) ;
#139 = PERSON ( 'NEURÈENÝ', 'NEURÈENÝ', 'NEURÈENÝ', ('NEURÈENÝ'), ('NEURÈENÝ'), ('NEURÈENÝ') ) ;
#140 = CC_DESIGN_APPROVAL ( #121, ( #13 ) ) ;
#141 = APPROVAL_ROLE ( '' ) ;
#142 = ORIENTED_EDGE ( 'NONE', *, *, #90, .T. ) ;
#143 = VECTOR ( 'NONE', #254, 1000.000000000000000 ) ;
#144 = APPROVAL_DATE_TIME ( #76, #164 ) ;
#145 = CC_DESIGN_DATE_AND_TIME_ASSIGNMENT ( #119, #22, ( #64 ) ) ;
#146 = DIRECTION ( 'NONE',  ( -0.000000000000000000, -0.000000000000000000, -1.000000000000000000 ) ) ;
#147 = DIRECTION ( 'NONE',  ( 1.000000000000000000, 0.000000000000000000, 0.000000000000000000 ) ) ;
#148 = CARTESIAN_POINT ( 'NONE',  ( -1.250000000000000000, 0.000000000000000000, 0.000000000000000000 ) ) ;
#149 = CYLINDRICAL_SURFACE ( 'NONE', #169, 0.5000000000000000000 ) ;
#150 = FACE_OUTER_BOUND ( 'NONE', #25, .T. ) ;
#151 = CARTESIAN_POINT ( 'NONE',  ( 0.000000000000000000, 0.000000000000000000, 1.199999999999999956 ) ) ;
#152 = CARTESIAN_POINT ( 'NONE',  ( 0.000000000000000000, 0.000000000000000000, 0.000000000000000000 ) ) ;
#153 = PERSON_AND_ORGANIZATION ( #139, #34 ) ;
#154 = UNCERTAINTY_MEASURE_WITH_UNIT (LENGTH_MEASURE( 1.000000000000000082E-05 ), #73, 'distance_accuracy_value', 'NONE');
#155 = VECTOR ( 'NONE', #110, 1000.000000000000000 ) ;
#156 = MANIFOLD_SOLID_BREP ( 'Pøidat vysunutím3', #223 ) ;
#157 =( NAMED_UNIT ( * ) PLANE_ANGLE_UNIT ( ) SI_UNIT ( $, .RADIAN. ) );
#158 = APPLICATION_CONTEXT ( 'configuration controlled 3d designs of mechanical parts and assemblies' ) ;
#159 = ADVANCED_FACE ( 'NONE', ( #69 ), #149, .T. ) ;
#160 = DIRECTION ( 'NONE',  ( 0.000000000000000000, 0.000000000000000000, 1.000000000000000000 ) ) ;
#161 = AXIS2_PLACEMENT_3D ( 'NONE', #30, #106, #196 ) ;
#162 = PERSON_AND_ORGANIZATION_ROLE ( 'creator' ) ;
#163 = DATE_AND_TIME ( #206, #225 ) ;
#164 = APPROVAL ( #183, 'NEURÈENÝ' ) ;
#165 = APPROVAL_STATUS ( 'not_yet_approved' ) ;
#166 = CALENDAR_DATE ( 2023, 31, 1 ) ;
#167 = ORIENTED_EDGE ( 'NONE', *, *, #57, .T. ) ;
#168 = ORIENTED_EDGE ( 'NONE', *, *, #131, .T. ) ;
#169 = AXIS2_PLACEMENT_3D ( 'NONE', #49, #132, #217 ) ;
#170 = CARTESIAN_POINT ( 'NONE',  ( 0.000000000000000000, 0.000000000000000000, 100.0000000000000000 ) ) ;
#171 = AXIS2_PLACEMENT_3D ( 'NONE', #81, #86, #101 ) ;
#172 = AXIS2_PLACEMENT_3D ( 'NONE', #200, #91, #180 ) ;
#173 = APPROVAL_PERSON_ORGANIZATION ( #61, #121, #120 ) ;
#174 = CARTESIAN_POINT ( 'NONE',  ( 0.5000000000000000000, 6.123233995736766036E-17, 100.0000000000000000 ) ) ;
#175 = CC_DESIGN_DATE_AND_TIME_ASSIGNMENT ( #9, #247, ( #74 ) ) ;
#176 = CARTESIAN_POINT ( 'NONE',  ( -1.250000000000000000, 0.000000000000000000, 1.199999999999999956 ) ) ;
#177 = FACE_OUTER_BOUND ( 'NONE', #79, .T. ) ;
#178 = LINE ( 'NONE', #239, #45 ) ;
#179 = CIRCLE ( 'NONE', #172, 0.5000000000000000000 ) ;
#180 = DIRECTION ( 'NONE',  ( 1.000000000000000000, 0.000000000000000000, 0.000000000000000000 ) ) ;
#181 = EDGE_CURVE ( 'NONE', #103, #12, #19, .T. ) ;
#182 = MECHANICAL_CONTEXT ( 'NONE', #189, 'mechanical' ) ;
#183 = APPROVAL_STATUS ( 'not_yet_approved' ) ;
#184 = ORIENTED_EDGE ( 'NONE', *, *, #57, .F. ) ;
#185 = VECTOR ( 'NONE', #138, 1000.000000000000000 ) ;
#186 = SECURITY_CLASSIFICATION_LEVEL ( 'unclassified' ) ;
#187 = CALENDAR_DATE ( 2023, 31, 1 ) ;
#188 = VERTEX_POINT ( 'NONE', #242 ) ;
#189 = APPLICATION_CONTEXT ( 'configuration controlled 3d designs of mechanical parts and assemblies' ) ;
#190 = ADVANCED_FACE ( 'NONE', ( #33 ), #137, .T. ) ;
#191 = EDGE_LOOP ( 'NONE', ( #184, #213, #14, #31 ) ) ;
#192 = DIRECTION ( 'NONE',  ( 0.000000000000000000, 0.000000000000000000, 1.000000000000000000 ) ) ;
#193 = EDGE_CURVE ( 'NONE', #238, #96, #179, .T. ) ;
#194 = DIRECTION ( 'NONE',  ( 1.000000000000000000, 0.000000000000000000, 0.000000000000000000 ) ) ;
#195 = CARTESIAN_POINT ( 'NONE',  ( 0.000000000000000000, 0.000000000000000000, 100.0000000000000000 ) ) ;
#196 = DIRECTION ( 'NONE',  ( 1.000000000000000000, 0.000000000000000000, 0.000000000000000000 ) ) ;
#197 = EDGE_CURVE ( 'NONE', #27, #238, #2, .T. ) ;
#198 = DIRECTION ( 'NONE',  ( 0.000000000000000000, 0.000000000000000000, 1.000000000000000000 ) ) ;
#199 = DIRECTION ( 'NONE',  ( 1.000000000000000000, 0.000000000000000000, 0.000000000000000000 ) ) ;
#200 = CARTESIAN_POINT ( 'NONE',  ( 0.000000000000000000, 0.000000000000000000, 1.199999999999999956 ) ) ;
#201 = CARTESIAN_POINT ( 'NONE',  ( 0.5000000000000000000, 6.123233995736766036E-17, 100.0000000000000000 ) ) ;
#202 = APPROVAL ( #165, 'NEURÈENÝ' ) ;
#203 = APPLICATION_PROTOCOL_DEFINITION ( 'international standard', 'config_control_design', 1994, #158 ) ;
#204 =( NAMED_UNIT ( * ) SI_UNIT ( $, .STERADIAN. ) SOLID_ANGLE_UNIT ( ) );
#205 = EDGE_CURVE ( 'NONE', #48, #230, #40, .T. ) ;
#206 = CALENDAR_DATE ( 2023, 31, 1 ) ;
#207 = CC_DESIGN_SECURITY_CLASSIFICATION ( #64, ( #13 ) ) ;
#208 = COORDINATED_UNIVERSAL_TIME_OFFSET ( 1, 0, .AHEAD. ) ;
#209 = ORIENTED_EDGE ( 'NONE', *, *, #205, .T. ) ;
#210 = EDGE_CURVE ( 'NONE', #230, #48, #244, .T. ) ;
#211 = ORIENTED_EDGE ( 'NONE', *, *, #205, .F. ) ;
#212 = APPROVAL_PERSON_ORGANIZATION ( #8, #164, #141 ) ;
#213 = ORIENTED_EDGE ( 'NONE', *, *, #214, .T. ) ;
#214 = EDGE_CURVE ( 'NONE', #12, #230, #178, .T. ) ;
#215 = DIRECTION ( 'NONE',  ( 0.000000000000000000, 0.000000000000000000, 1.000000000000000000 ) ) ;
#216 = CARTESIAN_POINT ( 'NONE',  ( -1.250000000000000000, 0.000000000000000000, 1.199999999999999956 ) ) ;
#217 = DIRECTION ( 'NONE',  ( -1.000000000000000000, 0.000000000000000000, 0.000000000000000000 ) ) ;
#218 = DESIGN_CONTEXT ( 'detailed design', #158, 'design' ) ;
#219 = CC_DESIGN_APPROVAL ( #164, ( #74 ) ) ;
#220 = CARTESIAN_POINT ( 'NONE',  ( 0.000000000000000000, 0.000000000000000000, 0.000000000000000000 ) ) ;
#221 = EDGE_CURVE ( 'NONE', #188, #96, #59, .T. ) ;
#222 = DIRECTION ( 'NONE',  ( 0.000000000000000000, 0.000000000000000000, 1.000000000000000000 ) ) ;
#223 = CLOSED_SHELL ( 'NONE', ( #80, #190, #52, #240, #107, #159, #3 ) ) ;
#224 = CARTESIAN_POINT ( 'NONE',  ( 0.000000000000000000, 0.000000000000000000, 1.199999999999999956 ) ) ;
#225 = LOCAL_TIME ( 15, 31, 13.00000000000000000, #37 ) ;
#226 = EDGE_CURVE ( 'NONE', #96, #238, #117, .T. ) ;
#227 = PERSON_AND_ORGANIZATION ( #139, #34 ) ;
#228 = ORIENTED_EDGE ( 'NONE', *, *, #221, .F. ) ;
#229 = APPROVAL_STATUS ( 'not_yet_approved' ) ;
#230 = VERTEX_POINT ( 'NONE', #36 ) ;
#231 = APPROVAL_DATE_TIME ( #43, #202 ) ;
#232 = PERSON_AND_ORGANIZATION_ROLE ( 'design_supplier' ) ;
#233 = PERSON_AND_ORGANIZATION ( #139, #34 ) ;
#234 = DIRECTION ( 'NONE',  ( -1.000000000000000000, 0.000000000000000000, 0.000000000000000000 ) ) ;
#235 = EDGE_LOOP ( 'NONE', ( #252, #63, #87, #10 ) ) ;
#236 = ORIENTED_EDGE ( 'NONE', *, *, #181, .T. ) ;
#237 = ORIENTED_EDGE ( 'NONE', *, *, #181, .F. ) ;
#238 = VERTEX_POINT ( 'NONE', #116 ) ;
#239 = CARTESIAN_POINT ( 'NONE',  ( 1.250000000000000000, 1.530808498934191571E-16, 1.199999999999999956 ) ) ;
#240 = ADVANCED_FACE ( 'NONE', ( #114, #4 ), #71, .T. ) ;
#241 = DIRECTION ( 'NONE',  ( 1.000000000000000000, 0.000000000000000000, 0.000000000000000000 ) ) ;
#242 = CARTESIAN_POINT ( 'NONE',  ( -0.5000000000000000000, 0.000000000000000000, 100.0000000000000000 ) ) ;
#243 = DIRECTION ( 'NONE',  ( 0.000000000000000000, 0.000000000000000000, 1.000000000000000000 ) ) ;
#244 = CIRCLE ( 'NONE', #127, 1.250000000000000000 ) ;
#245 = EDGE_LOOP ( 'NONE', ( #236, #167 ) ) ;
#246 = CC_DESIGN_PERSON_AND_ORGANIZATION_ASSIGNMENT ( #153, #58, ( #67 ) ) ;
#247 = DATE_TIME_ROLE ( 'creation_date' ) ;
#248 = ORIENTED_EDGE ( 'NONE', *, *, #210, .F. ) ;
#249 = ORIENTED_EDGE ( 'NONE', *, *, #193, .F. ) ;
#250 = CC_DESIGN_PERSON_AND_ORGANIZATION_ASSIGNMENT ( #23, #232, ( #13 ) ) ;
#251 = LINE ( 'NONE', #176, #143 ) ;
#252 = ORIENTED_EDGE ( 'NONE', *, *, #197, .F. ) ;
#253 = LOCAL_TIME ( 15, 31, 13.00000000000000000, #208 ) ;
#254 = DIRECTION ( 'NONE',  ( -0.000000000000000000, -0.000000000000000000, -1.000000000000000000 ) ) ;
#255 = CYLINDRICAL_SURFACE ( 'NONE', #72, 1.250000000000000000 ) ;
ENDSEC;
END-ISO-10303-21;
