ISO-10303-21;
HEADER;
FILE_DESCRIPTION (( 'STEP AP203' ),
    '1' );
FILE_NAME ('ffe7.STEP',
    '2023-02-13T12:08:14',
    ( '' ),
    ( '' ),
    'SwSTEP 2.0',
    'SolidWorks 2019',
    '' );
FILE_SCHEMA (( 'CONFIG_CONTROL_DESIGN' ));
ENDSEC;

DATA;
#1 = CARTESIAN_POINT ( 'NONE',  ( 0.000000000000000000, 0.000000000000000000, 0.000000000000000000 ) ) ;
#2 = LOCAL_TIME ( 13, 8, 14.00000000000000000, #79 ) ;
#3 = PERSON_AND_ORGANIZATION_ROLE ( 'creator' ) ;
#4 = DIRECTION ( 'NONE',  ( -1.000000000000000000, 0.000000000000000000, 0.000000000000000000 ) ) ;
#5 = AXIS2_PLACEMENT_3D ( 'NONE', #152, #198, #50 ) ;
#6 = DIRECTION ( 'NONE',  ( 1.000000000000000000, 0.000000000000000000, 0.000000000000000000 ) ) ;
#7 = PERSON_AND_ORGANIZATION_ROLE ( 'design_supplier' ) ;
#8 = ORIENTED_EDGE ( 'NONE', *, *, #173, .T. ) ;
#9 = LOCAL_TIME ( 13, 8, 14.00000000000000000, #142 ) ;
#10 = CALENDAR_DATE ( 2023, 13, 2 ) ;
#11 = ADVANCED_FACE ( 'NONE', ( #110 ), #49, .T. ) ;
#12 = VERTEX_POINT ( 'NONE', #221 ) ;
#13 = AXIS2_PLACEMENT_3D ( 'NONE', #36, #155, #33 ) ;
#14 = CARTESIAN_POINT ( 'NONE',  ( 0.000000000000000000, 0.000000000000000000, 5.000000000000000000 ) ) ;
#15 = CLOSED_SHELL ( 'NONE', ( #204, #11, #52, #101, #127, #106, #181 ) ) ;
#16 = CARTESIAN_POINT ( 'NONE',  ( 7.000000000000000000, 8.572527594031473190E-16, 5.000000000000000000 ) ) ;
#17 = AXIS2_PLACEMENT_3D ( 'NONE', #207, #81, #60 ) ;
#18 = FACE_OUTER_BOUND ( 'NONE', #64, .T. ) ;
#19 = DIRECTION ( 'NONE',  ( -1.000000000000000000, 0.000000000000000000, 0.000000000000000000 ) ) ;
#20 = CARTESIAN_POINT ( 'NONE',  ( 0.000000000000000000, 0.000000000000000000, 315.0000000000000000 ) ) ;
#21 = APPROVAL_STATUS ( 'not_yet_approved' ) ;
#22 = FACE_OUTER_BOUND ( 'NONE', #189, .T. ) ;
#23 = EDGE_CURVE ( 'NONE', #25, #63, #92, .T. ) ;
#24 = MECHANICAL_CONTEXT ( 'NONE', #150, 'mechanical' ) ;
#25 = VERTEX_POINT ( 'NONE', #96 ) ;
#26 = CC_DESIGN_PERSON_AND_ORGANIZATION_ASSIGNMENT ( #116, #203, ( #229 ) ) ;
#27 = CALENDAR_DATE ( 2023, 13, 2 ) ;
#28 = AXIS2_PLACEMENT_3D ( 'NONE', #120, #97, #4 ) ;
#29 = EDGE_CURVE ( 'NONE', #144, #30, #179, .T. ) ;
#30 = VERTEX_POINT ( 'NONE', #194 ) ;
#31 = DIRECTION ( 'NONE',  ( 0.000000000000000000, 0.000000000000000000, 1.000000000000000000 ) ) ;
#32 = DIRECTION ( 'NONE',  ( 1.000000000000000000, 0.000000000000000000, 0.000000000000000000 ) ) ;
#33 = DIRECTION ( 'NONE',  ( 1.000000000000000000, 0.000000000000000000, 0.000000000000000000 ) ) ;
#34 = AXIS2_PLACEMENT_3D ( 'NONE', #238, #130, #112 ) ;
#35 = DIRECTION ( 'NONE',  ( 1.000000000000000000, 0.000000000000000000, 0.000000000000000000 ) ) ;
#36 = CARTESIAN_POINT ( 'NONE',  ( 0.000000000000000000, 0.000000000000000000, 5.000000000000000000 ) ) ;
#37 =( NAMED_UNIT ( * ) SI_UNIT ( $, .STERADIAN. ) SOLID_ANGLE_UNIT ( ) );
#38 = CARTESIAN_POINT ( 'NONE',  ( 0.000000000000000000, 0.000000000000000000, 315.0000000000000000 ) ) ;
#39 = FACE_OUTER_BOUND ( 'NONE', #254, .T. ) ;
#40 = CIRCLE ( 'NONE', #192, 7.000000000000000000 ) ;
#41 = SECURITY_CLASSIFICATION ( '', '', #242 ) ;
#42 = PERSON_AND_ORGANIZATION ( #216, #160 ) ;
#43 = PERSON_AND_ORGANIZATION ( #216, #160 ) ;
#44 = CC_DESIGN_DATE_AND_TIME_ASSIGNMENT ( #240, #208, ( #132 ) ) ;
#45 = LOCAL_TIME ( 13, 8, 14.00000000000000000, #244 ) ;
#46 = EDGE_LOOP ( 'NONE', ( #214, #143, #167, #77 ) ) ;
#47 = VERTEX_POINT ( 'NONE', #236 ) ;
#48 = CC_DESIGN_PERSON_AND_ORGANIZATION_ASSIGNMENT ( #140, #7, ( #71 ) ) ;
#49 = CYLINDRICAL_SURFACE ( 'NONE', #175, 7.000000000000000000 ) ;
#50 = DIRECTION ( 'NONE',  ( 1.000000000000000000, 0.000000000000000000, 0.000000000000000000 ) ) ;
#51 = CARTESIAN_POINT ( 'NONE',  ( 0.000000000000000000, 0.000000000000000000, 5.000000000000000000 ) ) ;
#52 = ADVANCED_FACE ( 'NONE', ( #219 ), #251, .T. ) ;
#53 = DIRECTION ( 'NONE',  ( 1.000000000000000000, 0.000000000000000000, -0.000000000000000000 ) ) ;
#54 = CC_DESIGN_SECURITY_CLASSIFICATION ( #41, ( #71 ) ) ;
#55 = DIRECTION ( 'NONE',  ( 1.000000000000000000, 0.000000000000000000, -0.000000000000000000 ) ) ;
#56 =( LENGTH_UNIT ( ) NAMED_UNIT ( * ) SI_UNIT ( .MILLI., .METRE. ) );
#57 = APPROVAL ( #21, 'NEURÈENÝ' ) ;
#58 = CIRCLE ( 'NONE', #202, 4.500000000000000888 ) ;
#59 = DIRECTION ( 'NONE',  ( 0.000000000000000000, 0.000000000000000000, 1.000000000000000000 ) ) ;
#60 = DIRECTION ( 'NONE',  ( 1.000000000000000000, 0.000000000000000000, 0.000000000000000000 ) ) ;
#61 = EDGE_CURVE ( 'NONE', #231, #12, #201, .T. ) ;
#62 = PERSON_AND_ORGANIZATION_ROLE ( 'classification_officer' ) ;
#63 = VERTEX_POINT ( 'NONE', #16 ) ;
#64 = EDGE_LOOP ( 'NONE', ( #122, #172, #107, #145 ) ) ;
#65 = CALENDAR_DATE ( 2023, 13, 2 ) ;
#66 = ORIENTED_EDGE ( 'NONE', *, *, #29, .T. ) ;
#67 = EDGE_CURVE ( 'NONE', #30, #144, #100, .T. ) ;
#68 = SHAPE_DEFINITION_REPRESENTATION ( #171, #246 ) ;
#69 = DIRECTION ( 'NONE',  ( 0.000000000000000000, 0.000000000000000000, 1.000000000000000000 ) ) ;
#70 = VECTOR ( 'NONE', #252, 1000.000000000000000 ) ;
#71 = PRODUCT_DEFINITION_FORMATION_WITH_SPECIFIED_SOURCE ( 'LIBOVOLNÝ', '', #229, .NOT_KNOWN. ) ;
#72 = FACE_OUTER_BOUND ( 'NONE', #87, .T. ) ;
#73 = CARTESIAN_POINT ( 'NONE',  ( 0.000000000000000000, 0.000000000000000000, 5.000000000000000000 ) ) ;
#74 = EDGE_CURVE ( 'NONE', #47, #90, #40, .T. ) ;
#75 = DIRECTION ( 'NONE',  ( -1.000000000000000000, 0.000000000000000000, 0.000000000000000000 ) ) ;
#76 = CIRCLE ( 'NONE', #163, 7.000000000000000000 ) ;
#77 = ORIENTED_EDGE ( 'NONE', *, *, #173, .F. ) ;
#78 = DIRECTION ( 'NONE',  ( -0.000000000000000000, -0.000000000000000000, -1.000000000000000000 ) ) ;
#79 = COORDINATED_UNIVERSAL_TIME_OFFSET ( 1, 0, .AHEAD. ) ;
#80 = CC_DESIGN_APPROVAL ( #169, ( #71 ) ) ;
#81 = DIRECTION ( 'NONE',  ( 0.000000000000000000, 0.000000000000000000, 1.000000000000000000 ) ) ;
#82 = CALENDAR_DATE ( 2023, 13, 2 ) ;
#83 = APPROVAL_ROLE ( '' ) ;
#84 = ORIENTED_EDGE ( 'NONE', *, *, #74, .F. ) ;
#85 = APPROVAL ( #88, 'NEURÈENÝ' ) ;
#86 = ORIENTED_EDGE ( 'NONE', *, *, #218, .T. ) ;
#87 = EDGE_LOOP ( 'NONE', ( #210, #84 ) ) ;
#88 = APPROVAL_STATUS ( 'not_yet_approved' ) ;
#89 = EDGE_CURVE ( 'NONE', #63, #25, #76, .T. ) ;
#90 = VERTEX_POINT ( 'NONE', #111 ) ;
#91 = DIRECTION ( 'NONE',  ( 0.000000000000000000, 0.000000000000000000, 1.000000000000000000 ) ) ;
#92 = CIRCLE ( 'NONE', #13, 7.000000000000000000 ) ;
#93 = AXIS2_PLACEMENT_3D ( 'NONE', #1, #156, #6 ) ;
#94 = PLANE ( 'NONE',  #243 ) ;
#95 = CYLINDRICAL_SURFACE ( 'NONE', #193, 4.500000000000000888 ) ;
#96 = CARTESIAN_POINT ( 'NONE',  ( -7.000000000000000000, 0.000000000000000000, 5.000000000000000000 ) ) ;
#97 = DIRECTION ( 'NONE',  ( -0.000000000000000000, -0.000000000000000000, -1.000000000000000000 ) ) ;
#98 = APPROVAL_ROLE ( '' ) ;
#99 = APPLICATION_PROTOCOL_DEFINITION ( 'international standard', 'config_control_design', 1994, #166 ) ;
#100 = CIRCLE ( 'NONE', #154, 4.500000000000000888 ) ;
#101 = ADVANCED_FACE ( 'NONE', ( #148, #255 ), #94, .T. ) ;
#102 = LOCAL_TIME ( 13, 8, 14.00000000000000000, #185 ) ;
#103 = PERSON_AND_ORGANIZATION ( #216, #160 ) ;
#104 = DESIGN_CONTEXT ( 'detailed design', #166, 'design' ) ;
#105 = ORIENTED_EDGE ( 'NONE', *, *, #237, .F. ) ;
#106 = ADVANCED_FACE ( 'NONE', ( #18 ), #95, .T. ) ;
#107 = ORIENTED_EDGE ( 'NONE', *, *, #119, .T. ) ;
#108 = ORIENTED_EDGE ( 'NONE', *, *, #162, .T. ) ;
#109 = VECTOR ( 'NONE', #206, 1000.000000000000000 ) ;
#110 = FACE_OUTER_BOUND ( 'NONE', #46, .T. ) ;
#111 = CARTESIAN_POINT ( 'NONE',  ( -7.000000000000000000, 0.000000000000000000, 0.000000000000000000 ) ) ;
#112 = DIRECTION ( 'NONE',  ( 1.000000000000000000, 0.000000000000000000, 0.000000000000000000 ) ) ;
#113 = AXIS2_PLACEMENT_3D ( 'NONE', #153, #176, #53 ) ;
#114 = LINE ( 'NONE', #199, #70 ) ;
#115 = DIRECTION ( 'NONE',  ( 1.000000000000000000, 0.000000000000000000, 0.000000000000000000 ) ) ;
#116 = PERSON_AND_ORGANIZATION ( #216, #160 ) ;
#117 = LOCAL_TIME ( 13, 8, 14.00000000000000000, #190 ) ;
#118 = DATE_AND_TIME ( #82, #102 ) ;
#119 = EDGE_CURVE ( 'NONE', #231, #30, #114, .T. ) ;
#120 = CARTESIAN_POINT ( 'NONE',  ( 0.000000000000000000, 0.000000000000000000, 315.0000000000000000 ) ) ;
#121 = CARTESIAN_POINT ( 'NONE',  ( 7.000000000000000000, 8.572527594031473190E-16, 5.000000000000000000 ) ) ;
#122 = ORIENTED_EDGE ( 'NONE', *, *, #195, .F. ) ;
#123 = DATE_AND_TIME ( #65, #45 ) ;
#124 = ORIENTED_EDGE ( 'NONE', *, *, #195, .T. ) ;
#125 =( GEOMETRIC_REPRESENTATION_CONTEXT ( 3 ) GLOBAL_UNCERTAINTY_ASSIGNED_CONTEXT ( ( #211 ) ) GLOBAL_UNIT_ASSIGNED_CONTEXT ( ( #56, #138, #37 ) ) REPRESENTATION_CONTEXT ( 'NONE', 'WORKASPACE' ) );
#126 = ORIENTED_EDGE ( 'NONE', *, *, #218, .F. ) ;
#127 = ADVANCED_FACE ( 'NONE', ( #72 ), #178, .F. ) ;
#128 = DIRECTION ( 'NONE',  ( 1.000000000000000000, 0.000000000000000000, 0.000000000000000000 ) ) ;
#129 = CIRCLE ( 'NONE', #93, 7.000000000000000000 ) ;
#130 = DIRECTION ( 'NONE',  ( 0.000000000000000000, 0.000000000000000000, 1.000000000000000000 ) ) ;
#131 = DIRECTION ( 'NONE',  ( -0.000000000000000000, -0.000000000000000000, -1.000000000000000000 ) ) ;
#132 = PRODUCT_DEFINITION ( 'NEZNÁMÝ', '', #71, #104 ) ;
#133 = CARTESIAN_POINT ( 'NONE',  ( 0.000000000000000000, 0.000000000000000000, 5.000000000000000000 ) ) ;
#134 = CARTESIAN_POINT ( 'NONE',  ( 4.500000000000000888, 5.510910596163089556E-16, 5.000000000000000000 ) ) ;
#135 = CYLINDRICAL_SURFACE ( 'NONE', #28, 4.500000000000000888 ) ;
#136 = DIRECTION ( 'NONE',  ( -0.000000000000000000, -0.000000000000000000, -1.000000000000000000 ) ) ;
#137 = VECTOR ( 'NONE', #136, 1000.000000000000000 ) ;
#138 =( NAMED_UNIT ( * ) PLANE_ANGLE_UNIT ( ) SI_UNIT ( $, .RADIAN. ) );
#139 = APPLICATION_PROTOCOL_DEFINITION ( 'international standard', 'config_control_design', 1994, #150 ) ;
#140 = PERSON_AND_ORGANIZATION ( #216, #160 ) ;
#141 = CC_DESIGN_PERSON_AND_ORGANIZATION_ASSIGNMENT ( #186, #62, ( #41 ) ) ;
#142 = COORDINATED_UNIVERSAL_TIME_OFFSET ( 1, 0, .AHEAD. ) ;
#143 = ORIENTED_EDGE ( 'NONE', *, *, #237, .T. ) ;
#144 = VERTEX_POINT ( 'NONE', #134 ) ;
#145 = ORIENTED_EDGE ( 'NONE', *, *, #67, .T. ) ;
#146 = ORIENTED_EDGE ( 'NONE', *, *, #61, .T. ) ;
#147 = ORIENTED_EDGE ( 'NONE', *, *, #89, .T. ) ;
#148 = FACE_BOUND ( 'NONE', #170, .T. ) ;
#149 = CC_DESIGN_APPROVAL ( #85, ( #41 ) ) ;
#150 = APPLICATION_CONTEXT ( 'configuration controlled 3d designs of mechanical parts and assemblies' ) ;
#151 = DIRECTION ( 'NONE',  ( 0.000000000000000000, 0.000000000000000000, 1.000000000000000000 ) ) ;
#152 = CARTESIAN_POINT ( 'NONE',  ( 0.000000000000000000, 0.000000000000000000, 5.000000000000000000 ) ) ;
#153 = CARTESIAN_POINT ( 'NONE',  ( 0.000000000000000000, 0.000000000000000000, 0.000000000000000000 ) ) ;
#154 = AXIS2_PLACEMENT_3D ( 'NONE', #133, #69, #128 ) ;
#155 = DIRECTION ( 'NONE',  ( 0.000000000000000000, 0.000000000000000000, 1.000000000000000000 ) ) ;
#156 = DIRECTION ( 'NONE',  ( 0.000000000000000000, 0.000000000000000000, 1.000000000000000000 ) ) ;
#157 = CALENDAR_DATE ( 2023, 13, 2 ) ;
#158 = APPROVAL_PERSON_ORGANIZATION ( #43, #169, #247 ) ;
#159 = CARTESIAN_POINT ( 'NONE',  ( -4.500000000000000888, 0.000000000000000000, 315.0000000000000000 ) ) ;
#160 = ORGANIZATION ( 'NEURÈENÝ', 'NEURÈENÝ', '' ) ;
#161 = DIRECTION ( 'NONE',  ( 0.000000000000000000, 0.000000000000000000, 1.000000000000000000 ) ) ;
#162 = EDGE_CURVE ( 'NONE', #90, #47, #129, .T. ) ;
#163 = AXIS2_PLACEMENT_3D ( 'NONE', #196, #31, #32 ) ;
#164 = PERSON_AND_ORGANIZATION ( #216, #160 ) ;
#165 = DATE_AND_TIME ( #10, #117 ) ;
#166 = APPLICATION_CONTEXT ( 'configuration controlled 3d designs of mechanical parts and assemblies' ) ;
#167 = ORIENTED_EDGE ( 'NONE', *, *, #74, .T. ) ;
#168 = PERSON_AND_ORGANIZATION_ROLE ( 'creator' ) ;
#169 = APPROVAL ( #232, 'NEURÈENÝ' ) ;
#170 = EDGE_LOOP ( 'NONE', ( #250, #209 ) ) ;
#171 = PRODUCT_DEFINITION_SHAPE ( 'NONE', 'NONE',  #132 ) ;
#172 = ORIENTED_EDGE ( 'NONE', *, *, #61, .F. ) ;
#173 = EDGE_CURVE ( 'NONE', #25, #90, #241, .T. ) ;
#174 = DIRECTION ( 'NONE',  ( 1.000000000000000000, 0.000000000000000000, -0.000000000000000000 ) ) ;
#175 = AXIS2_PLACEMENT_3D ( 'NONE', #73, #131, #215 ) ;
#176 = DIRECTION ( 'NONE',  ( 0.000000000000000000, 0.000000000000000000, 1.000000000000000000 ) ) ;
#177 = CARTESIAN_POINT ( 'NONE',  ( 0.000000000000000000, 0.000000000000000000, 315.0000000000000000 ) ) ;
#178 = PLANE ( 'NONE',  #113 ) ;
#179 = CIRCLE ( 'NONE', #5, 4.500000000000000888 ) ;
#180 = PERSON_AND_ORGANIZATION ( #216, #160 ) ;
#181 = ADVANCED_FACE ( 'NONE', ( #22 ), #184, .T. ) ;
#182 = LINE ( 'NONE', #225, #137 ) ;
#183 = AXIS2_PLACEMENT_3D ( 'NONE', #51, #217, #19 ) ;
#184 = PLANE ( 'NONE',  #220 ) ;
#185 = COORDINATED_UNIVERSAL_TIME_OFFSET ( 1, 0, .AHEAD. ) ;
#186 = PERSON_AND_ORGANIZATION ( #216, #160 ) ;
#187 = EDGE_LOOP ( 'NONE', ( #105, #191, #8, #108 ) ) ;
#188 = APPROVAL_DATE_TIME ( #123, #169 ) ;
#189 = EDGE_LOOP ( 'NONE', ( #146, #86 ) ) ;
#190 = COORDINATED_UNIVERSAL_TIME_OFFSET ( 1, 0, .AHEAD. ) ;
#191 = ORIENTED_EDGE ( 'NONE', *, *, #23, .F. ) ;
#192 = AXIS2_PLACEMENT_3D ( 'NONE', #239, #151, #35 ) ;
#193 = AXIS2_PLACEMENT_3D ( 'NONE', #177, #235, #75 ) ;
#194 = CARTESIAN_POINT ( 'NONE',  ( -4.500000000000000888, 0.000000000000000000, 5.000000000000000000 ) ) ;
#195 = EDGE_CURVE ( 'NONE', #12, #144, #182, .T. ) ;
#196 = CARTESIAN_POINT ( 'NONE',  ( 0.000000000000000000, 0.000000000000000000, 5.000000000000000000 ) ) ;
#197 = VECTOR ( 'NONE', #78, 1000.000000000000000 ) ;
#198 = DIRECTION ( 'NONE',  ( 0.000000000000000000, 0.000000000000000000, 1.000000000000000000 ) ) ;
#199 = CARTESIAN_POINT ( 'NONE',  ( -4.500000000000000888, 0.000000000000000000, 315.0000000000000000 ) ) ;
#200 = CARTESIAN_POINT ( 'NONE',  ( -7.000000000000000000, 0.000000000000000000, 5.000000000000000000 ) ) ;
#201 = CIRCLE ( 'NONE', #34, 4.500000000000000888 ) ;
#202 = AXIS2_PLACEMENT_3D ( 'NONE', #20, #59, #115 ) ;
#203 = PERSON_AND_ORGANIZATION_ROLE ( 'design_owner' ) ;
#204 = ADVANCED_FACE ( 'NONE', ( #39 ), #135, .T. ) ;
#205 = APPROVAL_DATE_TIME ( #118, #57 ) ;
#206 = DIRECTION ( 'NONE',  ( -0.000000000000000000, -0.000000000000000000, -1.000000000000000000 ) ) ;
#207 = CARTESIAN_POINT ( 'NONE',  ( 0.000000000000000000, 0.000000000000000000, 0.000000000000000000 ) ) ;
#208 = DATE_TIME_ROLE ( 'creation_date' ) ;
#209 = ORIENTED_EDGE ( 'NONE', *, *, #29, .F. ) ;
#210 = ORIENTED_EDGE ( 'NONE', *, *, #162, .F. ) ;
#211 = UNCERTAINTY_MEASURE_WITH_UNIT (LENGTH_MEASURE( 1.000000000000000082E-05 ), #56, 'distance_accuracy_value', 'NONE');
#212 = DATE_TIME_ROLE ( 'classification_date' ) ;
#213 = CC_DESIGN_PERSON_AND_ORGANIZATION_ASSIGNMENT ( #42, #168, ( #71 ) ) ;
#214 = ORIENTED_EDGE ( 'NONE', *, *, #89, .F. ) ;
#215 = DIRECTION ( 'NONE',  ( -1.000000000000000000, 0.000000000000000000, 0.000000000000000000 ) ) ;
#216 = PERSON ( 'NEURÈENÝ', 'NEURÈENÝ', 'NEURÈENÝ', ('NEURÈENÝ'), ('NEURÈENÝ'), ('NEURÈENÝ') ) ;
#217 = DIRECTION ( 'NONE',  ( -0.000000000000000000, -0.000000000000000000, -1.000000000000000000 ) ) ;
#218 = EDGE_CURVE ( 'NONE', #12, #231, #58, .T. ) ;
#219 = FACE_OUTER_BOUND ( 'NONE', #187, .T. ) ;
#220 = AXIS2_PLACEMENT_3D ( 'NONE', #38, #161, #55 ) ;
#221 = CARTESIAN_POINT ( 'NONE',  ( 4.500000000000000888, 5.510910596163089556E-16, 315.0000000000000000 ) ) ;
#222 = LINE ( 'NONE', #121, #197 ) ;
#223 = APPROVAL_PERSON_ORGANIZATION ( #103, #57, #98 ) ;
#224 = CC_DESIGN_DATE_AND_TIME_ASSIGNMENT ( #165, #212, ( #41 ) ) ;
#225 = CARTESIAN_POINT ( 'NONE',  ( 4.500000000000000888, 5.510910596163089556E-16, 315.0000000000000000 ) ) ;
#226 = MANIFOLD_SOLID_BREP ( 'Pøidat vysunutím3', #15 ) ;
#227 = CC_DESIGN_APPROVAL ( #57, ( #132 ) ) ;
#228 = APPROVAL_DATE_TIME ( #249, #85 ) ;
#229 = PRODUCT ( 'ffe7', 'ffe7', '', ( #24 ) ) ;
#230 = APPROVAL_PERSON_ORGANIZATION ( #164, #85, #83 ) ;
#231 = VERTEX_POINT ( 'NONE', #159 ) ;
#232 = APPROVAL_STATUS ( 'not_yet_approved' ) ;
#233 = CC_DESIGN_PERSON_AND_ORGANIZATION_ASSIGNMENT ( #180, #3, ( #132 ) ) ;
#234 = ORIENTED_EDGE ( 'NONE', *, *, #23, .T. ) ;
#235 = DIRECTION ( 'NONE',  ( -0.000000000000000000, -0.000000000000000000, -1.000000000000000000 ) ) ;
#236 = CARTESIAN_POINT ( 'NONE',  ( 7.000000000000000000, 8.572527594031473190E-16, 0.000000000000000000 ) ) ;
#237 = EDGE_CURVE ( 'NONE', #63, #47, #222, .T. ) ;
#238 = CARTESIAN_POINT ( 'NONE',  ( 0.000000000000000000, 0.000000000000000000, 315.0000000000000000 ) ) ;
#239 = CARTESIAN_POINT ( 'NONE',  ( 0.000000000000000000, 0.000000000000000000, 0.000000000000000000 ) ) ;
#240 = DATE_AND_TIME ( #157, #2 ) ;
#241 = LINE ( 'NONE', #200, #109 ) ;
#242 = SECURITY_CLASSIFICATION_LEVEL ( 'unclassified' ) ;
#243 = AXIS2_PLACEMENT_3D ( 'NONE', #14, #91, #174 ) ;
#244 = COORDINATED_UNIVERSAL_TIME_OFFSET ( 1, 0, .AHEAD. ) ;
#245 = EDGE_LOOP ( 'NONE', ( #234, #147 ) ) ;
#246 = ADVANCED_BREP_SHAPE_REPRESENTATION ( 'ffe7', ( #226, #17 ), #125 ) ;
#247 = APPROVAL_ROLE ( '' ) ;
#248 = ORIENTED_EDGE ( 'NONE', *, *, #119, .F. ) ;
#249 = DATE_AND_TIME ( #27, #9 ) ;
#250 = ORIENTED_EDGE ( 'NONE', *, *, #67, .F. ) ;
#251 = CYLINDRICAL_SURFACE ( 'NONE', #183, 7.000000000000000000 ) ;
#252 = DIRECTION ( 'NONE',  ( -0.000000000000000000, -0.000000000000000000, -1.000000000000000000 ) ) ;
#253 = PRODUCT_RELATED_PRODUCT_CATEGORY ( 'detail', '', ( #229 ) ) ;
#254 = EDGE_LOOP ( 'NONE', ( #126, #124, #66, #248 ) ) ;
#255 = FACE_OUTER_BOUND ( 'NONE', #245, .T. ) ;
ENDSEC;
END-ISO-10303-21;
