ISO-10303-21;
HEADER;
FILE_DESCRIPTION (( 'STEP AP203' ),
    '1' );
FILE_NAME ('d404.STEP',
    '2023-01-31T14:33:14',
    ( '' ),
    ( '' ),
    'SwSTEP 2.0',
    'SolidWorks 2019',
    '' );
FILE_SCHEMA (( 'CONFIG_CONTROL_DESIGN' ));
ENDSEC;

DATA;
#1 = ORIENTED_EDGE ( 'NONE', *, *, #230, .T. ) ;
#2 = CC_DESIGN_DATE_AND_TIME_ASSIGNMENT ( #52, #134, ( #191 ) ) ;
#3 = DATE_AND_TIME ( #57, #64 ) ;
#4 = CARTESIAN_POINT ( 'NONE',  ( -0.5000000000000000000, 0.000000000000000000, 1.199999999999999956 ) ) ;
#5 = ORIENTED_EDGE ( 'NONE', *, *, #136, .T. ) ;
#6 = ADVANCED_FACE ( 'NONE', ( #223 ), #75, .T. ) ;
#7 = ORIENTED_EDGE ( 'NONE', *, *, #201, .F. ) ;
#8 = CARTESIAN_POINT ( 'NONE',  ( 0.000000000000000000, 0.000000000000000000, 1.199999999999999956 ) ) ;
#9 = AXIS2_PLACEMENT_3D ( 'NONE', #169, #228, #112 ) ;
#10 = CIRCLE ( 'NONE', #156, 1.250000000000000000 ) ;
#11 = CALENDAR_DATE ( 2023, 31, 1 ) ;
#12 = FACE_OUTER_BOUND ( 'NONE', #24, .T. ) ;
#13 = FACE_OUTER_BOUND ( 'NONE', #97, .T. ) ;
#14 = DIRECTION ( 'NONE',  ( -0.000000000000000000, -0.000000000000000000, -1.000000000000000000 ) ) ;
#15 = AXIS2_PLACEMENT_3D ( 'NONE', #137, #200, #109 ) ;
#16 = PERSON_AND_ORGANIZATION_ROLE ( 'classification_officer' ) ;
#17 = DATE_AND_TIME ( #50, #148 ) ;
#18 = CARTESIAN_POINT ( 'NONE',  ( 1.250000000000000000, 1.530808498934191571E-16, 1.199999999999999956 ) ) ;
#19 = PERSON_AND_ORGANIZATION_ROLE ( 'design_owner' ) ;
#20 = EDGE_CURVE ( 'NONE', #186, #34, #77, .T. ) ;
#21 = ORIENTED_EDGE ( 'NONE', *, *, #190, .T. ) ;
#22 = ORIENTED_EDGE ( 'NONE', *, *, #74, .F. ) ;
#23 = PERSON_AND_ORGANIZATION_ROLE ( 'creator' ) ;
#24 = EDGE_LOOP ( 'NONE', ( #27, #180, #241, #49 ) ) ;
#25 =( NAMED_UNIT ( * ) SI_UNIT ( $, .STERADIAN. ) SOLID_ANGLE_UNIT ( ) );
#26 = ORIENTED_EDGE ( 'NONE', *, *, #173, .T. ) ;
#27 = ORIENTED_EDGE ( 'NONE', *, *, #33, .F. ) ;
#28 = CALENDAR_DATE ( 2023, 31, 1 ) ;
#29 = PLANE ( 'NONE',  #60 ) ;
#30 = ADVANCED_FACE ( 'NONE', ( #38 ), #244, .T. ) ;
#31 = APPLICATION_PROTOCOL_DEFINITION ( 'international standard', 'config_control_design', 1994, #116 ) ;
#32 = ORIENTED_EDGE ( 'NONE', *, *, #74, .T. ) ;
#33 = EDGE_CURVE ( 'NONE', #182, #175, #128, .T. ) ;
#34 = VERTEX_POINT ( 'NONE', #167 ) ;
#35 = CC_DESIGN_PERSON_AND_ORGANIZATION_ASSIGNMENT ( #111, #16, ( #191 ) ) ;
#36 = CIRCLE ( 'NONE', #71, 1.250000000000000000 ) ;
#37 = LOCAL_TIME ( 15, 33, 14.00000000000000000, #143 ) ;
#38 = FACE_OUTER_BOUND ( 'NONE', #208, .T. ) ;
#39 = CC_DESIGN_PERSON_AND_ORGANIZATION_ASSIGNMENT ( #250, #171, ( #125 ) ) ;
#40 = DIRECTION ( 'NONE',  ( 1.000000000000000000, 0.000000000000000000, 0.000000000000000000 ) ) ;
#41 = CALENDAR_DATE ( 2023, 31, 1 ) ;
#42 = CARTESIAN_POINT ( 'NONE',  ( 0.5000000000000000000, 6.123233995736766036E-17, 100.0000000000000000 ) ) ;
#43 = CC_DESIGN_APPROVAL ( #181, ( #125 ) ) ;
#44 = DIRECTION ( 'NONE',  ( 0.000000000000000000, 0.000000000000000000, 1.000000000000000000 ) ) ;
#45 = CC_DESIGN_SECURITY_CLASSIFICATION ( #191, ( #220 ) ) ;
#46 = LINE ( 'NONE', #18, #222 ) ;
#47 = APPROVAL_STATUS ( 'not_yet_approved' ) ;
#48 = CARTESIAN_POINT ( 'NONE',  ( 0.000000000000000000, 0.000000000000000000, 0.000000000000000000 ) ) ;
#49 = ORIENTED_EDGE ( 'NONE', *, *, #190, .F. ) ;
#50 = CALENDAR_DATE ( 2023, 31, 1 ) ;
#51 = CARTESIAN_POINT ( 'NONE',  ( 0.000000000000000000, 0.000000000000000000, 100.0000000000000000 ) ) ;
#52 = DATE_AND_TIME ( #28, #124 ) ;
#53 = CIRCLE ( 'NONE', #237, 0.5000000000000000000 ) ;
#54 = DESIGN_CONTEXT ( 'detailed design', #166, 'design' ) ;
#55 = FACE_BOUND ( 'NONE', #120, .T. ) ;
#56 = APPROVAL_PERSON_ORGANIZATION ( #214, #119, #178 ) ;
#57 = CALENDAR_DATE ( 2023, 31, 1 ) ;
#58 = EDGE_CURVE ( 'NONE', #98, #207, #76, .T. ) ;
#59 = ORIENTED_EDGE ( 'NONE', *, *, #253, .F. ) ;
#60 = AXIS2_PLACEMENT_3D ( 'NONE', #135, #177, #69 ) ;
#61 = ORIENTED_EDGE ( 'NONE', *, *, #173, .F. ) ;
#62 = ADVANCED_BREP_SHAPE_REPRESENTATION ( 'd404', ( #255, #172 ), #103 ) ;
#63 = PERSON_AND_ORGANIZATION ( #65, #140 ) ;
#64 = LOCAL_TIME ( 15, 33, 14.00000000000000000, #72 ) ;
#65 = PERSON ( 'NEURÈENÝ', 'NEURÈENÝ', 'NEURÈENÝ', ('NEURÈENÝ'), ('NEURÈENÝ'), ('NEURÈENÝ') ) ;
#66 = SECURITY_CLASSIFICATION_LEVEL ( 'unclassified' ) ;
#67 = COORDINATED_UNIVERSAL_TIME_OFFSET ( 1, 0, .AHEAD. ) ;
#68 = APPROVAL_ROLE ( '' ) ;
#69 = DIRECTION ( 'NONE',  ( 1.000000000000000000, 0.000000000000000000, -0.000000000000000000 ) ) ;
#70 = CC_DESIGN_APPROVAL ( #86, ( #220 ) ) ;
#71 = AXIS2_PLACEMENT_3D ( 'NONE', #235, #91, #215 ) ;
#72 = COORDINATED_UNIVERSAL_TIME_OFFSET ( 1, 0, .AHEAD. ) ;
#73 = AXIS2_PLACEMENT_3D ( 'NONE', #162, #83, #248 ) ;
#74 = EDGE_CURVE ( 'NONE', #98, #34, #224, .T. ) ;
#75 = PLANE ( 'NONE',  #73 ) ;
#76 = CIRCLE ( 'NONE', #95, 1.250000000000000000 ) ;
#77 = CIRCLE ( 'NONE', #132, 1.250000000000000000 ) ;
#78 = CARTESIAN_POINT ( 'NONE',  ( -1.250000000000000000, 0.000000000000000000, 1.199999999999999956 ) ) ;
#79 = CC_DESIGN_PERSON_AND_ORGANIZATION_ASSIGNMENT ( #219, #23, ( #220 ) ) ;
#80 = DIRECTION ( 'NONE',  ( 1.000000000000000000, 0.000000000000000000, 0.000000000000000000 ) ) ;
#81 = CARTESIAN_POINT ( 'NONE',  ( 0.000000000000000000, 0.000000000000000000, 0.000000000000000000 ) ) ;
#82 = PRODUCT_DEFINITION_SHAPE ( 'NONE', 'NONE',  #125 ) ;
#83 = DIRECTION ( 'NONE',  ( 0.000000000000000000, 0.000000000000000000, 1.000000000000000000 ) ) ;
#84 = AXIS2_PLACEMENT_3D ( 'NONE', #8, #131, #192 ) ;
#85 = DIRECTION ( 'NONE',  ( 1.000000000000000000, 0.000000000000000000, 0.000000000000000000 ) ) ;
#86 = APPROVAL ( #176, 'NEURÈENÝ' ) ;
#87 = APPROVAL_DATE_TIME ( #195, #181 ) ;
#88 = CYLINDRICAL_SURFACE ( 'NONE', #204, 0.5000000000000000000 ) ;
#89 = VERTEX_POINT ( 'NONE', #188 ) ;
#90 = PERSON_AND_ORGANIZATION ( #65, #140 ) ;
#91 = DIRECTION ( 'NONE',  ( 0.000000000000000000, 0.000000000000000000, 1.000000000000000000 ) ) ;
#92 = DIRECTION ( 'NONE',  ( -1.000000000000000000, 0.000000000000000000, 0.000000000000000000 ) ) ;
#93 = CLOSED_SHELL ( 'NONE', ( #210, #30, #196, #216, #163, #252, #6 ) ) ;
#94 = ORIENTED_EDGE ( 'NONE', *, *, #20, .T. ) ;
#95 = AXIS2_PLACEMENT_3D ( 'NONE', #164, #246, #40 ) ;
#96 = CC_DESIGN_APPROVAL ( #119, ( #191 ) ) ;
#97 = EDGE_LOOP ( 'NONE', ( #141, #203 ) ) ;
#98 = VERTEX_POINT ( 'NONE', #101 ) ;
#99 = ORIENTED_EDGE ( 'NONE', *, *, #226, .T. ) ;
#100 = PERSON_AND_ORGANIZATION ( #65, #140 ) ;
#101 = CARTESIAN_POINT ( 'NONE',  ( -1.250000000000000000, 0.000000000000000000, 1.199999999999999956 ) ) ;
#102 = DIRECTION ( 'NONE',  ( 0.000000000000000000, 0.000000000000000000, 1.000000000000000000 ) ) ;
#103 =( GEOMETRIC_REPRESENTATION_CONTEXT ( 3 ) GLOBAL_UNCERTAINTY_ASSIGNED_CONTEXT ( ( #138 ) ) GLOBAL_UNIT_ASSIGNED_CONTEXT ( ( #206, #221, #25 ) ) REPRESENTATION_CONTEXT ( 'NONE', 'WORKASPACE' ) );
#104 = VERTEX_POINT ( 'NONE', #4 ) ;
#105 = CARTESIAN_POINT ( 'NONE',  ( 0.000000000000000000, 0.000000000000000000, 1.199999999999999956 ) ) ;
#106 = DIRECTION ( 'NONE',  ( 0.000000000000000000, 0.000000000000000000, 1.000000000000000000 ) ) ;
#107 = APPROVAL_PERSON_ORGANIZATION ( #90, #86, #68 ) ;
#108 = CIRCLE ( 'NONE', #9, 0.5000000000000000000 ) ;
#109 = DIRECTION ( 'NONE',  ( -1.000000000000000000, 0.000000000000000000, 0.000000000000000000 ) ) ;
#110 = CARTESIAN_POINT ( 'NONE',  ( 0.5000000000000000000, 6.123233995736766036E-17, 100.0000000000000000 ) ) ;
#111 = PERSON_AND_ORGANIZATION ( #65, #140 ) ;
#112 = DIRECTION ( 'NONE',  ( 1.000000000000000000, 0.000000000000000000, 0.000000000000000000 ) ) ;
#113 = APPROVAL_ROLE ( '' ) ;
#114 = DIRECTION ( 'NONE',  ( -1.000000000000000000, 0.000000000000000000, 0.000000000000000000 ) ) ;
#115 = APPROVAL_STATUS ( 'not_yet_approved' ) ;
#116 = APPLICATION_CONTEXT ( 'configuration controlled 3d designs of mechanical parts and assemblies' ) ;
#117 = DIRECTION ( 'NONE',  ( 1.000000000000000000, 0.000000000000000000, 0.000000000000000000 ) ) ;
#118 = CARTESIAN_POINT ( 'NONE',  ( 0.000000000000000000, 0.000000000000000000, 1.199999999999999956 ) ) ;
#119 = APPROVAL ( #115, 'NEURÈENÝ' ) ;
#120 = EDGE_LOOP ( 'NONE', ( #142, #251 ) ) ;
#121 = CC_DESIGN_DATE_AND_TIME_ASSIGNMENT ( #17, #150, ( #125 ) ) ;
#122 = SHAPE_DEFINITION_REPRESENTATION ( #82, #62 ) ;
#123 = AXIS2_PLACEMENT_3D ( 'NONE', #48, #106, #213 ) ;
#124 = LOCAL_TIME ( 15, 33, 14.00000000000000000, #211 ) ;
#125 = PRODUCT_DEFINITION ( 'NEZNÁMÝ', '', #220, #54 ) ;
#126 = DIRECTION ( 'NONE',  ( -0.000000000000000000, -0.000000000000000000, -1.000000000000000000 ) ) ;
#127 = DATE_AND_TIME ( #41, #37 ) ;
#128 = CIRCLE ( 'NONE', #229, 0.5000000000000000000 ) ;
#129 = CARTESIAN_POINT ( 'NONE',  ( 0.000000000000000000, 0.000000000000000000, 1.199999999999999956 ) ) ;
#130 = APPLICATION_PROTOCOL_DEFINITION ( 'international standard', 'config_control_design', 1994, #166 ) ;
#131 = DIRECTION ( 'NONE',  ( 0.000000000000000000, 0.000000000000000000, 1.000000000000000000 ) ) ;
#132 = AXIS2_PLACEMENT_3D ( 'NONE', #81, #102, #165 ) ;
#133 = DIRECTION ( 'NONE',  ( 1.000000000000000000, 0.000000000000000000, 0.000000000000000000 ) ) ;
#134 = DATE_TIME_ROLE ( 'classification_date' ) ;
#135 = CARTESIAN_POINT ( 'NONE',  ( 0.000000000000000000, 0.000000000000000000, 1.199999999999999956 ) ) ;
#136 = EDGE_CURVE ( 'NONE', #104, #89, #247, .T. ) ;
#137 = CARTESIAN_POINT ( 'NONE',  ( 0.000000000000000000, 0.000000000000000000, 100.0000000000000000 ) ) ;
#138 = UNCERTAINTY_MEASURE_WITH_UNIT (LENGTH_MEASURE( 1.000000000000000082E-05 ), #206, 'distance_accuracy_value', 'NONE');
#139 = CC_DESIGN_PERSON_AND_ORGANIZATION_ASSIGNMENT ( #63, #19, ( #217 ) ) ;
#140 = ORGANIZATION ( 'NEURÈENÝ', 'NEURÈENÝ', '' ) ;
#141 = ORIENTED_EDGE ( 'NONE', *, *, #226, .F. ) ;
#142 = ORIENTED_EDGE ( 'NONE', *, *, #136, .F. ) ;
#143 = COORDINATED_UNIVERSAL_TIME_OFFSET ( 1, 0, .AHEAD. ) ;
#144 = APPROVAL_DATE_TIME ( #3, #119 ) ;
#145 = LINE ( 'NONE', #245, #189 ) ;
#146 = DIRECTION ( 'NONE',  ( 0.000000000000000000, 0.000000000000000000, 1.000000000000000000 ) ) ;
#147 = DIRECTION ( 'NONE',  ( -1.000000000000000000, 0.000000000000000000, 0.000000000000000000 ) ) ;
#148 = LOCAL_TIME ( 15, 33, 14.00000000000000000, #67 ) ;
#149 = MECHANICAL_CONTEXT ( 'NONE', #116, 'mechanical' ) ;
#150 = DATE_TIME_ROLE ( 'creation_date' ) ;
#151 = CARTESIAN_POINT ( 'NONE',  ( 0.000000000000000000, 0.000000000000000000, 0.000000000000000000 ) ) ;
#152 = FACE_OUTER_BOUND ( 'NONE', #161, .T. ) ;
#153 = DIRECTION ( 'NONE',  ( -0.000000000000000000, -0.000000000000000000, -1.000000000000000000 ) ) ;
#154 = CYLINDRICAL_SURFACE ( 'NONE', #15, 0.5000000000000000000 ) ;
#155 = ORIENTED_EDGE ( 'NONE', *, *, #33, .T. ) ;
#156 = AXIS2_PLACEMENT_3D ( 'NONE', #198, #174, #85 ) ;
#157 = FACE_OUTER_BOUND ( 'NONE', #240, .T. ) ;
#158 = LOCAL_TIME ( 15, 33, 14.00000000000000000, #234 ) ;
#159 = ORIENTED_EDGE ( 'NONE', *, *, #58, .T. ) ;
#160 = EDGE_CURVE ( 'NONE', #89, #104, #53, .T. ) ;
#161 = EDGE_LOOP ( 'NONE', ( #159, #26 ) ) ;
#162 = CARTESIAN_POINT ( 'NONE',  ( 0.000000000000000000, 0.000000000000000000, 100.0000000000000000 ) ) ;
#163 = ADVANCED_FACE ( 'NONE', ( #13 ), #232, .F. ) ;
#164 = CARTESIAN_POINT ( 'NONE',  ( 0.000000000000000000, 0.000000000000000000, 1.199999999999999956 ) ) ;
#165 = DIRECTION ( 'NONE',  ( 1.000000000000000000, 0.000000000000000000, 0.000000000000000000 ) ) ;
#166 = APPLICATION_CONTEXT ( 'configuration controlled 3d designs of mechanical parts and assemblies' ) ;
#167 = CARTESIAN_POINT ( 'NONE',  ( -1.250000000000000000, 0.000000000000000000, 0.000000000000000000 ) ) ;
#168 = CARTESIAN_POINT ( 'NONE',  ( -0.5000000000000000000, 0.000000000000000000, 100.0000000000000000 ) ) ;
#169 = CARTESIAN_POINT ( 'NONE',  ( 0.000000000000000000, 0.000000000000000000, 100.0000000000000000 ) ) ;
#170 = LINE ( 'NONE', #42, #254 ) ;
#171 = PERSON_AND_ORGANIZATION_ROLE ( 'creator' ) ;
#172 = AXIS2_PLACEMENT_3D ( 'NONE', #151, #44, #117 ) ;
#173 = EDGE_CURVE ( 'NONE', #207, #98, #10, .T. ) ;
#174 = DIRECTION ( 'NONE',  ( 0.000000000000000000, 0.000000000000000000, 1.000000000000000000 ) ) ;
#175 = VERTEX_POINT ( 'NONE', #168 ) ;
#176 = APPROVAL_STATUS ( 'not_yet_approved' ) ;
#177 = DIRECTION ( 'NONE',  ( 0.000000000000000000, 0.000000000000000000, 1.000000000000000000 ) ) ;
#178 = APPROVAL_ROLE ( '' ) ;
#179 = AXIS2_PLACEMENT_3D ( 'NONE', #105, #126, #147 ) ;
#180 = ORIENTED_EDGE ( 'NONE', *, *, #253, .T. ) ;
#181 = APPROVAL ( #47, 'NEURÈENÝ' ) ;
#182 = VERTEX_POINT ( 'NONE', #110 ) ;
#183 = PERSON_AND_ORGANIZATION_ROLE ( 'design_supplier' ) ;
#184 = PRODUCT_RELATED_PRODUCT_CATEGORY ( 'detail', '', ( #217 ) ) ;
#185 = VECTOR ( 'NONE', #227, 1000.000000000000000 ) ;
#186 = VERTEX_POINT ( 'NONE', #243 ) ;
#187 = EDGE_LOOP ( 'NONE', ( #218, #155 ) ) ;
#188 = CARTESIAN_POINT ( 'NONE',  ( 0.5000000000000000000, 6.123233995736766036E-17, 1.199999999999999956 ) ) ;
#189 = VECTOR ( 'NONE', #153, 1000.000000000000000 ) ;
#190 = EDGE_CURVE ( 'NONE', #175, #104, #145, .T. ) ;
#191 = SECURITY_CLASSIFICATION ( '', '', #66 ) ;
#192 = DIRECTION ( 'NONE',  ( 1.000000000000000000, 0.000000000000000000, 0.000000000000000000 ) ) ;
#193 = PERSON_AND_ORGANIZATION ( #65, #140 ) ;
#194 = CARTESIAN_POINT ( 'NONE',  ( 1.250000000000000000, 1.530808498934191571E-16, 1.199999999999999956 ) ) ;
#195 = DATE_AND_TIME ( #11, #158 ) ;
#196 = ADVANCED_FACE ( 'NONE', ( #238 ), #233, .T. ) ;
#197 = DIRECTION ( 'NONE',  ( -0.000000000000000000, -0.000000000000000000, -1.000000000000000000 ) ) ;
#198 = CARTESIAN_POINT ( 'NONE',  ( 0.000000000000000000, 0.000000000000000000, 1.199999999999999956 ) ) ;
#199 = DIRECTION ( 'NONE',  ( -0.000000000000000000, -0.000000000000000000, -1.000000000000000000 ) ) ;
#200 = DIRECTION ( 'NONE',  ( -0.000000000000000000, -0.000000000000000000, -1.000000000000000000 ) ) ;
#201 = EDGE_CURVE ( 'NONE', #175, #182, #108, .T. ) ;
#202 = ORIENTED_EDGE ( 'NONE', *, *, #58, .F. ) ;
#203 = ORIENTED_EDGE ( 'NONE', *, *, #20, .F. ) ;
#204 = AXIS2_PLACEMENT_3D ( 'NONE', #51, #197, #92 ) ;
#205 = CARTESIAN_POINT ( 'NONE',  ( 0.000000000000000000, 0.000000000000000000, 100.0000000000000000 ) ) ;
#206 =( LENGTH_UNIT ( ) NAMED_UNIT ( * ) SI_UNIT ( .MILLI., .METRE. ) );
#207 = VERTEX_POINT ( 'NONE', #194 ) ;
#208 = EDGE_LOOP ( 'NONE', ( #61, #1, #94, #22 ) ) ;
#209 = EDGE_LOOP ( 'NONE', ( #212, #202, #32, #99 ) ) ;
#210 = ADVANCED_FACE ( 'NONE', ( #12 ), #88, .T. ) ;
#211 = COORDINATED_UNIVERSAL_TIME_OFFSET ( 1, 0, .AHEAD. ) ;
#212 = ORIENTED_EDGE ( 'NONE', *, *, #230, .F. ) ;
#213 = DIRECTION ( 'NONE',  ( 1.000000000000000000, 0.000000000000000000, -0.000000000000000000 ) ) ;
#214 = PERSON_AND_ORGANIZATION ( #65, #140 ) ;
#215 = DIRECTION ( 'NONE',  ( 1.000000000000000000, 0.000000000000000000, 0.000000000000000000 ) ) ;
#216 = ADVANCED_FACE ( 'NONE', ( #55, #152 ), #29, .T. ) ;
#217 = PRODUCT ( 'd404', 'd404', '', ( #149 ) ) ;
#218 = ORIENTED_EDGE ( 'NONE', *, *, #201, .T. ) ;
#219 = PERSON_AND_ORGANIZATION ( #65, #140 ) ;
#220 = PRODUCT_DEFINITION_FORMATION_WITH_SPECIFIED_SOURCE ( 'LIBOVOLNÝ', '', #217, .NOT_KNOWN. ) ;
#221 =( NAMED_UNIT ( * ) PLANE_ANGLE_UNIT ( ) SI_UNIT ( $, .RADIAN. ) );
#222 = VECTOR ( 'NONE', #14, 1000.000000000000000 ) ;
#223 = FACE_OUTER_BOUND ( 'NONE', #187, .T. ) ;
#224 = LINE ( 'NONE', #78, #185 ) ;
#225 = APPROVAL_DATE_TIME ( #127, #86 ) ;
#226 = EDGE_CURVE ( 'NONE', #34, #186, #36, .T. ) ;
#227 = DIRECTION ( 'NONE',  ( -0.000000000000000000, -0.000000000000000000, -1.000000000000000000 ) ) ;
#228 = DIRECTION ( 'NONE',  ( 0.000000000000000000, 0.000000000000000000, 1.000000000000000000 ) ) ;
#229 = AXIS2_PLACEMENT_3D ( 'NONE', #205, #146, #80 ) ;
#230 = EDGE_CURVE ( 'NONE', #207, #186, #46, .T. ) ;
#231 = DIRECTION ( 'NONE',  ( 0.000000000000000000, 0.000000000000000000, 1.000000000000000000 ) ) ;
#232 = PLANE ( 'NONE',  #123 ) ;
#233 = CYLINDRICAL_SURFACE ( 'NONE', #236, 1.250000000000000000 ) ;
#234 = COORDINATED_UNIVERSAL_TIME_OFFSET ( 1, 0, .AHEAD. ) ;
#235 = CARTESIAN_POINT ( 'NONE',  ( 0.000000000000000000, 0.000000000000000000, 0.000000000000000000 ) ) ;
#236 = AXIS2_PLACEMENT_3D ( 'NONE', #118, #199, #114 ) ;
#237 = AXIS2_PLACEMENT_3D ( 'NONE', #129, #231, #133 ) ;
#238 = FACE_OUTER_BOUND ( 'NONE', #209, .T. ) ;
#239 = APPROVAL_PERSON_ORGANIZATION ( #193, #181, #113 ) ;
#240 = EDGE_LOOP ( 'NONE', ( #59, #7, #21, #5 ) ) ;
#241 = ORIENTED_EDGE ( 'NONE', *, *, #160, .T. ) ;
#242 = CC_DESIGN_PERSON_AND_ORGANIZATION_ASSIGNMENT ( #100, #183, ( #220 ) ) ;
#243 = CARTESIAN_POINT ( 'NONE',  ( 1.250000000000000000, 1.530808498934191571E-16, 0.000000000000000000 ) ) ;
#244 = CYLINDRICAL_SURFACE ( 'NONE', #179, 1.250000000000000000 ) ;
#245 = CARTESIAN_POINT ( 'NONE',  ( -0.5000000000000000000, 0.000000000000000000, 100.0000000000000000 ) ) ;
#246 = DIRECTION ( 'NONE',  ( 0.000000000000000000, 0.000000000000000000, 1.000000000000000000 ) ) ;
#247 = CIRCLE ( 'NONE', #84, 0.5000000000000000000 ) ;
#248 = DIRECTION ( 'NONE',  ( 1.000000000000000000, 0.000000000000000000, -0.000000000000000000 ) ) ;
#249 = DIRECTION ( 'NONE',  ( -0.000000000000000000, -0.000000000000000000, -1.000000000000000000 ) ) ;
#250 = PERSON_AND_ORGANIZATION ( #65, #140 ) ;
#251 = ORIENTED_EDGE ( 'NONE', *, *, #160, .F. ) ;
#252 = ADVANCED_FACE ( 'NONE', ( #157 ), #154, .T. ) ;
#253 = EDGE_CURVE ( 'NONE', #182, #89, #170, .T. ) ;
#254 = VECTOR ( 'NONE', #249, 1000.000000000000000 ) ;
#255 = MANIFOLD_SOLID_BREP ( 'Pøidat vysunutím3', #93 ) ;
ENDSEC;
END-ISO-10303-21;
