ISO-10303-21;
HEADER;
FILE_DESCRIPTION (( 'STEP AP203' ),
    '1' );
FILE_NAME ('31a3.STEP',
    '2023-02-13T15:59:58',
    ( '' ),
    ( '' ),
    'SwSTEP 2.0',
    'SolidWorks 2019',
    '' );
FILE_SCHEMA (( 'CONFIG_CONTROL_DESIGN' ));
ENDSEC;

DATA;
#1 = DIRECTION ( 'NONE',  ( 0.000000000000000000, 0.000000000000000000, 1.000000000000000000 ) ) ;
#2 = APPLICATION_CONTEXT ( 'configuration controlled 3d designs of mechanical parts and assemblies' ) ;
#3 = CARTESIAN_POINT ( 'NONE',  ( -2.000000000000000000, 0.000000000000000000, 0.000000000000000000 ) ) ;
#4 = AXIS2_PLACEMENT_3D ( 'NONE', #173, #25, #185 ) ;
#5 = DIRECTION ( 'NONE',  ( 1.000000000000000000, 0.000000000000000000, -0.000000000000000000 ) ) ;
#6 = CARTESIAN_POINT ( 'NONE',  ( 0.000000000000000000, 0.000000000000000000, 0.000000000000000000 ) ) ;
#7 = EDGE_CURVE ( 'NONE', #252, #120, #245, .T. ) ;
#8 = COORDINATED_UNIVERSAL_TIME_OFFSET ( 1, 0, .AHEAD. ) ;
#9 = ORIENTED_EDGE ( 'NONE', *, *, #54, .T. ) ;
#10 = CC_DESIGN_APPROVAL ( #240, ( #26 ) ) ;
#11 = PLANE ( 'NONE',  #162 ) ;
#12 = AXIS2_PLACEMENT_3D ( 'NONE', #184, #180, #233 ) ;
#13 = COORDINATED_UNIVERSAL_TIME_OFFSET ( 1, 0, .AHEAD. ) ;
#14 = EDGE_LOOP ( 'NONE', ( #176, #156 ) ) ;
#15 = PERSON_AND_ORGANIZATION ( #224, #169 ) ;
#16 = ORIENTED_EDGE ( 'NONE', *, *, #228, .F. ) ;
#17 = CC_DESIGN_PERSON_AND_ORGANIZATION_ASSIGNMENT ( #67, #220, ( #174 ) ) ;
#18 = PERSON_AND_ORGANIZATION_ROLE ( 'design_supplier' ) ;
#19 = VERTEX_POINT ( 'NONE', #163 ) ;
#20 = EDGE_CURVE ( 'NONE', #194, #53, #104, .T. ) ;
#21 = CARTESIAN_POINT ( 'NONE',  ( -1.000000000000000000, 0.000000000000000000, 100.0000000000000000 ) ) ;
#22 = CYLINDRICAL_SURFACE ( 'NONE', #167, 2.000000000000000000 ) ;
#23 = FACE_OUTER_BOUND ( 'NONE', #30, .T. ) ;
#24 = DIRECTION ( 'NONE',  ( 0.000000000000000000, 0.000000000000000000, 1.000000000000000000 ) ) ;
#25 = DIRECTION ( 'NONE',  ( 0.000000000000000000, 0.000000000000000000, 1.000000000000000000 ) ) ;
#26 = PRODUCT_DEFINITION_FORMATION_WITH_SPECIFIED_SOURCE ( 'LIBOVOLNÝ', '', #171, .NOT_KNOWN. ) ;
#27 = DIRECTION ( 'NONE',  ( 1.000000000000000000, 0.000000000000000000, 0.000000000000000000 ) ) ;
#28 = EDGE_CURVE ( 'NONE', #42, #139, #181, .T. ) ;
#29 = CARTESIAN_POINT ( 'NONE',  ( 0.000000000000000000, 0.000000000000000000, 100.0000000000000000 ) ) ;
#30 = EDGE_LOOP ( 'NONE', ( #95, #88 ) ) ;
#31 = CARTESIAN_POINT ( 'NONE',  ( 0.000000000000000000, 0.000000000000000000, 2.000000000000000000 ) ) ;
#32 = CC_DESIGN_DATE_AND_TIME_ASSIGNMENT ( #93, #38, ( #83 ) ) ;
#33 = AXIS2_PLACEMENT_3D ( 'NONE', #208, #148, #188 ) ;
#34 = DIRECTION ( 'NONE',  ( 0.000000000000000000, 0.000000000000000000, 1.000000000000000000 ) ) ;
#35 = ORIENTED_EDGE ( 'NONE', *, *, #20, .F. ) ;
#36 = ORIENTED_EDGE ( 'NONE', *, *, #63, .T. ) ;
#37 = CC_DESIGN_DATE_AND_TIME_ASSIGNMENT ( #86, #130, ( #174 ) ) ;
#38 = DATE_TIME_ROLE ( 'classification_date' ) ;
#39 = ORIENTED_EDGE ( 'NONE', *, *, #177, .F. ) ;
#40 = ADVANCED_FACE ( 'NONE', ( #125 ), #253, .T. ) ;
#41 = AXIS2_PLACEMENT_3D ( 'NONE', #146, #34, #27 ) ;
#42 = VERTEX_POINT ( 'NONE', #145 ) ;
#43 = CYLINDRICAL_SURFACE ( 'NONE', #249, 1.000000000000000000 ) ;
#44 = CARTESIAN_POINT ( 'NONE',  ( 0.000000000000000000, 0.000000000000000000, 0.000000000000000000 ) ) ;
#45 = DIRECTION ( 'NONE',  ( -1.000000000000000000, 0.000000000000000000, 0.000000000000000000 ) ) ;
#46 = CC_DESIGN_PERSON_AND_ORGANIZATION_ASSIGNMENT ( #214, #18, ( #26 ) ) ;
#47 = DIRECTION ( 'NONE',  ( 1.000000000000000000, 0.000000000000000000, 0.000000000000000000 ) ) ;
#48 = DIRECTION ( 'NONE',  ( -0.000000000000000000, -0.000000000000000000, -1.000000000000000000 ) ) ;
#49 = CALENDAR_DATE ( 2023, 13, 2 ) ;
#50 = PERSON_AND_ORGANIZATION_ROLE ( 'design_owner' ) ;
#51 = LOCAL_TIME ( 16, 59, 58.00000000000000000, #112 ) ;
#52 = LINE ( 'NONE', #206, #55 ) ;
#53 = VERTEX_POINT ( 'NONE', #3 ) ;
#54 = EDGE_CURVE ( 'NONE', #252, #19, #79, .T. ) ;
#55 = VECTOR ( 'NONE', #209, 1000.000000000000000 ) ;
#56 =( GEOMETRIC_REPRESENTATION_CONTEXT ( 3 ) GLOBAL_UNCERTAINTY_ASSIGNED_CONTEXT ( ( #126 ) ) GLOBAL_UNIT_ASSIGNED_CONTEXT ( ( #164, #241, #243 ) ) REPRESENTATION_CONTEXT ( 'NONE', 'WORKASPACE' ) );
#57 = PERSON_AND_ORGANIZATION_ROLE ( 'classification_officer' ) ;
#58 = EDGE_CURVE ( 'NONE', #117, #19, #207, .T. ) ;
#59 = ORIENTED_EDGE ( 'NONE', *, *, #63, .F. ) ;
#60 = APPROVAL_PERSON_ORGANIZATION ( #205, #240, #69 ) ;
#61 = DIRECTION ( 'NONE',  ( 1.000000000000000000, 0.000000000000000000, 0.000000000000000000 ) ) ;
#62 = CARTESIAN_POINT ( 'NONE',  ( 0.000000000000000000, 0.000000000000000000, 100.0000000000000000 ) ) ;
#63 = EDGE_CURVE ( 'NONE', #120, #117, #255, .T. ) ;
#64 = DIRECTION ( 'NONE',  ( 0.000000000000000000, 0.000000000000000000, 1.000000000000000000 ) ) ;
#65 = CARTESIAN_POINT ( 'NONE',  ( 0.000000000000000000, 0.000000000000000000, 100.0000000000000000 ) ) ;
#66 = PLANE ( 'NONE',  #115 ) ;
#67 = PERSON_AND_ORGANIZATION ( #224, #169 ) ;
#68 = CARTESIAN_POINT ( 'NONE',  ( 2.000000000000000000, 2.449293598294706414E-16, 0.000000000000000000 ) ) ;
#69 = APPROVAL_ROLE ( '' ) ;
#70 = DIRECTION ( 'NONE',  ( 1.000000000000000000, 0.000000000000000000, -0.000000000000000000 ) ) ;
#71 = EDGE_CURVE ( 'NONE', #42, #53, #100, .T. ) ;
#72 = ADVANCED_FACE ( 'NONE', ( #128 ), #66, .T. ) ;
#73 = SHAPE_DEFINITION_REPRESENTATION ( #154, #77 ) ;
#74 = CIRCLE ( 'NONE', #41, 1.000000000000000000 ) ;
#75 = CALENDAR_DATE ( 2023, 13, 2 ) ;
#76 = EDGE_LOOP ( 'NONE', ( #186, #9, #251, #59 ) ) ;
#77 = ADVANCED_BREP_SHAPE_REPRESENTATION ( '31a3', ( #201, #33 ), #56 ) ;
#78 = AXIS2_PLACEMENT_3D ( 'NONE', #199, #1, #81 ) ;
#79 = LINE ( 'NONE', #219, #190 ) ;
#80 = FACE_OUTER_BOUND ( 'NONE', #110, .T. ) ;
#81 = DIRECTION ( 'NONE',  ( 1.000000000000000000, 0.000000000000000000, 0.000000000000000000 ) ) ;
#82 = ADVANCED_FACE ( 'NONE', ( #182 ), #140, .T. ) ;
#83 = SECURITY_CLASSIFICATION ( '', '', #192 ) ;
#84 = CALENDAR_DATE ( 2023, 13, 2 ) ;
#85 = APPROVAL_ROLE ( '' ) ;
#86 = DATE_AND_TIME ( #129, #124 ) ;
#87 = APPROVAL ( #237, 'NEURÈENÝ' ) ;
#88 = ORIENTED_EDGE ( 'NONE', *, *, #228, .T. ) ;
#89 = APPROVAL_DATE_TIME ( #151, #247 ) ;
#90 = LOCAL_TIME ( 16, 59, 58.00000000000000000, #155 ) ;
#91 = PERSON_AND_ORGANIZATION ( #224, #169 ) ;
#92 = EDGE_LOOP ( 'NONE', ( #135, #94 ) ) ;
#93 = DATE_AND_TIME ( #119, #90 ) ;
#94 = ORIENTED_EDGE ( 'NONE', *, *, #198, .F. ) ;
#95 = ORIENTED_EDGE ( 'NONE', *, *, #28, .T. ) ;
#96 = CC_DESIGN_PERSON_AND_ORGANIZATION_ASSIGNMENT ( #225, #50, ( #171 ) ) ;
#97 = ORIENTED_EDGE ( 'NONE', *, *, #98, .F. ) ;
#98 = EDGE_CURVE ( 'NONE', #53, #194, #254, .T. ) ;
#99 = AXIS2_PLACEMENT_3D ( 'NONE', #62, #215, #127 ) ;
#100 = LINE ( 'NONE', #159, #221 ) ;
#101 = DIRECTION ( 'NONE',  ( 1.000000000000000000, 0.000000000000000000, -0.000000000000000000 ) ) ;
#102 = CARTESIAN_POINT ( 'NONE',  ( 0.000000000000000000, 0.000000000000000000, 0.000000000000000000 ) ) ;
#103 = DIRECTION ( 'NONE',  ( 0.000000000000000000, 0.000000000000000000, 1.000000000000000000 ) ) ;
#104 = CIRCLE ( 'NONE', #133, 2.000000000000000000 ) ;
#105 = CIRCLE ( 'NONE', #246, 1.000000000000000000 ) ;
#106 = DIRECTION ( 'NONE',  ( 1.000000000000000000, 0.000000000000000000, 0.000000000000000000 ) ) ;
#107 = EDGE_LOOP ( 'NONE', ( #97, #35 ) ) ;
#108 = DIRECTION ( 'NONE',  ( 0.000000000000000000, 0.000000000000000000, 1.000000000000000000 ) ) ;
#109 = AXIS2_PLACEMENT_3D ( 'NONE', #141, #103, #5 ) ;
#110 = EDGE_LOOP ( 'NONE', ( #114, #179, #36, #226 ) ) ;
#111 = APPROVAL_PERSON_ORGANIZATION ( #91, #247, #116 ) ;
#112 = COORDINATED_UNIVERSAL_TIME_OFFSET ( 1, 0, .AHEAD. ) ;
#113 = APPLICATION_CONTEXT ( 'configuration controlled 3d designs of mechanical parts and assemblies' ) ;
#114 = ORIENTED_EDGE ( 'NONE', *, *, #54, .F. ) ;
#115 = AXIS2_PLACEMENT_3D ( 'NONE', #218, #203, #101 ) ;
#116 = APPROVAL_ROLE ( '' ) ;
#117 = VERTEX_POINT ( 'NONE', #122 ) ;
#118 = CLOSED_SHELL ( 'NONE', ( #82, #144, #40, #121, #210, #165, #72 ) ) ;
#119 = CALENDAR_DATE ( 2023, 13, 2 ) ;
#120 = VERTEX_POINT ( 'NONE', #160 ) ;
#121 = ADVANCED_FACE ( 'NONE', ( #123, #23 ), #235, .T. ) ;
#122 = CARTESIAN_POINT ( 'NONE',  ( -1.000000000000000000, 0.000000000000000000, 2.000000000000000000 ) ) ;
#123 = FACE_BOUND ( 'NONE', #92, .T. ) ;
#124 = LOCAL_TIME ( 16, 59, 58.00000000000000000, #8 ) ;
#125 = FACE_OUTER_BOUND ( 'NONE', #170, .T. ) ;
#126 = UNCERTAINTY_MEASURE_WITH_UNIT (LENGTH_MEASURE( 1.000000000000000082E-05 ), #164, 'distance_accuracy_value', 'NONE');
#127 = DIRECTION ( 'NONE',  ( -1.000000000000000000, 0.000000000000000000, 0.000000000000000000 ) ) ;
#128 = FACE_OUTER_BOUND ( 'NONE', #14, .T. ) ;
#129 = CALENDAR_DATE ( 2023, 13, 2 ) ;
#130 = DATE_TIME_ROLE ( 'creation_date' ) ;
#131 = MECHANICAL_CONTEXT ( 'NONE', #2, 'mechanical' ) ;
#132 = PERSON_AND_ORGANIZATION ( #224, #169 ) ;
#133 = AXIS2_PLACEMENT_3D ( 'NONE', #102, #24, #47 ) ;
#134 = FACE_OUTER_BOUND ( 'NONE', #107, .T. ) ;
#135 = ORIENTED_EDGE ( 'NONE', *, *, #58, .F. ) ;
#136 = DATE_AND_TIME ( #49, #195 ) ;
#137 = VECTOR ( 'NONE', #48, 1000.000000000000000 ) ;
#138 = DESIGN_CONTEXT ( 'detailed design', #113, 'design' ) ;
#139 = VERTEX_POINT ( 'NONE', #197 ) ;
#140 = CYLINDRICAL_SURFACE ( 'NONE', #99, 1.000000000000000000 ) ;
#141 = CARTESIAN_POINT ( 'NONE',  ( 0.000000000000000000, 0.000000000000000000, 2.000000000000000000 ) ) ;
#142 = CC_DESIGN_APPROVAL ( #247, ( #83 ) ) ;
#143 = DIRECTION ( 'NONE',  ( -0.000000000000000000, -0.000000000000000000, -1.000000000000000000 ) ) ;
#144 = ADVANCED_FACE ( 'NONE', ( #157 ), #22, .T. ) ;
#145 = CARTESIAN_POINT ( 'NONE',  ( -2.000000000000000000, 0.000000000000000000, 2.000000000000000000 ) ) ;
#146 = CARTESIAN_POINT ( 'NONE',  ( 0.000000000000000000, 0.000000000000000000, 2.000000000000000000 ) ) ;
#147 = COORDINATED_UNIVERSAL_TIME_OFFSET ( 1, 0, .AHEAD. ) ;
#148 = DIRECTION ( 'NONE',  ( 0.000000000000000000, 0.000000000000000000, 1.000000000000000000 ) ) ;
#149 = PRODUCT_RELATED_PRODUCT_CATEGORY ( 'detail', '', ( #171 ) ) ;
#150 = APPLICATION_PROTOCOL_DEFINITION ( 'international standard', 'config_control_design', 1994, #2 ) ;
#151 = DATE_AND_TIME ( #75, #153 ) ;
#152 = ORIENTED_EDGE ( 'NONE', *, *, #71, .F. ) ;
#153 = LOCAL_TIME ( 16, 59, 58.00000000000000000, #13 ) ;
#154 = PRODUCT_DEFINITION_SHAPE ( 'NONE', 'NONE',  #174 ) ;
#155 = COORDINATED_UNIVERSAL_TIME_OFFSET ( 1, 0, .AHEAD. ) ;
#156 = ORIENTED_EDGE ( 'NONE', *, *, #7, .T. ) ;
#157 = FACE_OUTER_BOUND ( 'NONE', #211, .T. ) ;
#158 = CC_DESIGN_SECURITY_CLASSIFICATION ( #83, ( #26 ) ) ;
#159 = CARTESIAN_POINT ( 'NONE',  ( -2.000000000000000000, 0.000000000000000000, 2.000000000000000000 ) ) ;
#160 = CARTESIAN_POINT ( 'NONE',  ( -1.000000000000000000, 0.000000000000000000, 100.0000000000000000 ) ) ;
#161 = DIRECTION ( 'NONE',  ( -0.000000000000000000, -0.000000000000000000, -1.000000000000000000 ) ) ;
#162 = AXIS2_PLACEMENT_3D ( 'NONE', #6, #204, #70 ) ;
#163 = CARTESIAN_POINT ( 'NONE',  ( 1.000000000000000000, 1.224646799147353207E-16, 2.000000000000000000 ) ) ;
#164 =( LENGTH_UNIT ( ) NAMED_UNIT ( * ) SI_UNIT ( .MILLI., .METRE. ) );
#165 = ADVANCED_FACE ( 'NONE', ( #80 ), #43, .T. ) ;
#166 = DIRECTION ( 'NONE',  ( 0.000000000000000000, 0.000000000000000000, 1.000000000000000000 ) ) ;
#167 = AXIS2_PLACEMENT_3D ( 'NONE', #234, #216, #231 ) ;
#168 = APPROVAL_STATUS ( 'not_yet_approved' ) ;
#169 = ORGANIZATION ( 'NEURÈENÝ', 'NEURÈENÝ', '' ) ;
#170 = EDGE_LOOP ( 'NONE', ( #39, #175, #178, #230 ) ) ;
#171 = PRODUCT ( '31a3', '31a3', '', ( #131 ) ) ;
#172 = DIRECTION ( 'NONE',  ( 1.000000000000000000, 0.000000000000000000, 0.000000000000000000 ) ) ;
#173 = CARTESIAN_POINT ( 'NONE',  ( 0.000000000000000000, 0.000000000000000000, 100.0000000000000000 ) ) ;
#174 = PRODUCT_DEFINITION ( 'NEZNÁMÝ', '', #26, #138 ) ;
#175 = ORIENTED_EDGE ( 'NONE', *, *, #28, .F. ) ;
#176 = ORIENTED_EDGE ( 'NONE', *, *, #244, .T. ) ;
#177 = EDGE_CURVE ( 'NONE', #139, #194, #52, .T. ) ;
#178 = ORIENTED_EDGE ( 'NONE', *, *, #71, .T. ) ;
#179 = ORIENTED_EDGE ( 'NONE', *, *, #244, .F. ) ;
#180 = DIRECTION ( 'NONE',  ( 0.000000000000000000, 0.000000000000000000, 1.000000000000000000 ) ) ;
#181 = CIRCLE ( 'NONE', #12, 2.000000000000000000 ) ;
#182 = FACE_OUTER_BOUND ( 'NONE', #76, .T. ) ;
#183 = CARTESIAN_POINT ( 'NONE',  ( 0.000000000000000000, 0.000000000000000000, 2.000000000000000000 ) ) ;
#184 = CARTESIAN_POINT ( 'NONE',  ( 0.000000000000000000, 0.000000000000000000, 2.000000000000000000 ) ) ;
#185 = DIRECTION ( 'NONE',  ( 1.000000000000000000, 0.000000000000000000, 0.000000000000000000 ) ) ;
#186 = ORIENTED_EDGE ( 'NONE', *, *, #7, .F. ) ;
#187 = APPROVAL_DATE_TIME ( #236, #87 ) ;
#188 = DIRECTION ( 'NONE',  ( 1.000000000000000000, 0.000000000000000000, 0.000000000000000000 ) ) ;
#189 = PERSON_AND_ORGANIZATION ( #224, #169 ) ;
#190 = VECTOR ( 'NONE', #196, 1000.000000000000000 ) ;
#191 = ORIENTED_EDGE ( 'NONE', *, *, #177, .T. ) ;
#192 = SECURITY_CLASSIFICATION_LEVEL ( 'unclassified' ) ;
#193 = ORIENTED_EDGE ( 'NONE', *, *, #20, .T. ) ;
#194 = VERTEX_POINT ( 'NONE', #68 ) ;
#195 = LOCAL_TIME ( 16, 59, 58.00000000000000000, #147 ) ;
#196 = DIRECTION ( 'NONE',  ( -0.000000000000000000, -0.000000000000000000, -1.000000000000000000 ) ) ;
#197 = CARTESIAN_POINT ( 'NONE',  ( 2.000000000000000000, 2.449293598294706414E-16, 2.000000000000000000 ) ) ;
#198 = EDGE_CURVE ( 'NONE', #19, #117, #74, .T. ) ;
#199 = CARTESIAN_POINT ( 'NONE',  ( 0.000000000000000000, 0.000000000000000000, 2.000000000000000000 ) ) ;
#200 = DIRECTION ( 'NONE',  ( -1.000000000000000000, 0.000000000000000000, 0.000000000000000000 ) ) ;
#201 = MANIFOLD_SOLID_BREP ( 'Pøidat vysunutím3', #118 ) ;
#202 = CC_DESIGN_PERSON_AND_ORGANIZATION_ASSIGNMENT ( #189, #57, ( #83 ) ) ;
#203 = DIRECTION ( 'NONE',  ( 0.000000000000000000, 0.000000000000000000, 1.000000000000000000 ) ) ;
#204 = DIRECTION ( 'NONE',  ( 0.000000000000000000, 0.000000000000000000, 1.000000000000000000 ) ) ;
#205 = PERSON_AND_ORGANIZATION ( #224, #169 ) ;
#206 = CARTESIAN_POINT ( 'NONE',  ( 2.000000000000000000, 2.449293598294706414E-16, 2.000000000000000000 ) ) ;
#207 = CIRCLE ( 'NONE', #78, 1.000000000000000000 ) ;
#208 = CARTESIAN_POINT ( 'NONE',  ( 0.000000000000000000, 0.000000000000000000, 0.000000000000000000 ) ) ;
#209 = DIRECTION ( 'NONE',  ( -0.000000000000000000, -0.000000000000000000, -1.000000000000000000 ) ) ;
#210 = ADVANCED_FACE ( 'NONE', ( #134 ), #11, .F. ) ;
#211 = EDGE_LOOP ( 'NONE', ( #16, #191, #193, #152 ) ) ;
#212 = AXIS2_PLACEMENT_3D ( 'NONE', #183, #161, #45 ) ;
#213 = APPROVAL_DATE_TIME ( #136, #240 ) ;
#214 = PERSON_AND_ORGANIZATION ( #224, #169 ) ;
#215 = DIRECTION ( 'NONE',  ( -0.000000000000000000, -0.000000000000000000, -1.000000000000000000 ) ) ;
#216 = DIRECTION ( 'NONE',  ( -0.000000000000000000, -0.000000000000000000, -1.000000000000000000 ) ) ;
#217 = CIRCLE ( 'NONE', #250, 2.000000000000000000 ) ;
#218 = CARTESIAN_POINT ( 'NONE',  ( 0.000000000000000000, 0.000000000000000000, 100.0000000000000000 ) ) ;
#219 = CARTESIAN_POINT ( 'NONE',  ( 1.000000000000000000, 1.224646799147353207E-16, 100.0000000000000000 ) ) ;
#220 = PERSON_AND_ORGANIZATION_ROLE ( 'creator' ) ;
#221 = VECTOR ( 'NONE', #232, 1000.000000000000000 ) ;
#222 = APPLICATION_PROTOCOL_DEFINITION ( 'international standard', 'config_control_design', 1994, #113 ) ;
#223 = CC_DESIGN_PERSON_AND_ORGANIZATION_ASSIGNMENT ( #15, #229, ( #26 ) ) ;
#224 = PERSON ( 'NEURÈENÝ', 'NEURÈENÝ', 'NEURÈENÝ', ('NEURÈENÝ'), ('NEURÈENÝ'), ('NEURÈENÝ') ) ;
#225 = PERSON_AND_ORGANIZATION ( #224, #169 ) ;
#226 = ORIENTED_EDGE ( 'NONE', *, *, #58, .T. ) ;
#227 = CC_DESIGN_APPROVAL ( #87, ( #174 ) ) ;
#228 = EDGE_CURVE ( 'NONE', #139, #42, #217, .T. ) ;
#229 = PERSON_AND_ORGANIZATION_ROLE ( 'creator' ) ;
#230 = ORIENTED_EDGE ( 'NONE', *, *, #98, .T. ) ;
#231 = DIRECTION ( 'NONE',  ( -1.000000000000000000, 0.000000000000000000, 0.000000000000000000 ) ) ;
#232 = DIRECTION ( 'NONE',  ( -0.000000000000000000, -0.000000000000000000, -1.000000000000000000 ) ) ;
#233 = DIRECTION ( 'NONE',  ( 1.000000000000000000, 0.000000000000000000, 0.000000000000000000 ) ) ;
#234 = CARTESIAN_POINT ( 'NONE',  ( 0.000000000000000000, 0.000000000000000000, 2.000000000000000000 ) ) ;
#235 = PLANE ( 'NONE',  #109 ) ;
#236 = DATE_AND_TIME ( #84, #51 ) ;
#237 = APPROVAL_STATUS ( 'not_yet_approved' ) ;
#238 = AXIS2_PLACEMENT_3D ( 'NONE', #44, #64, #61 ) ;
#239 = APPROVAL_PERSON_ORGANIZATION ( #132, #87, #85 ) ;
#240 = APPROVAL ( #168, 'NEURÈENÝ' ) ;
#241 =( NAMED_UNIT ( * ) PLANE_ANGLE_UNIT ( ) SI_UNIT ( $, .RADIAN. ) );
#242 = CARTESIAN_POINT ( 'NONE',  ( 1.000000000000000000, 1.224646799147353207E-16, 100.0000000000000000 ) ) ;
#243 =( NAMED_UNIT ( * ) SI_UNIT ( $, .STERADIAN. ) SOLID_ANGLE_UNIT ( ) );
#244 = EDGE_CURVE ( 'NONE', #120, #252, #105, .T. ) ;
#245 = CIRCLE ( 'NONE', #4, 1.000000000000000000 ) ;
#246 = AXIS2_PLACEMENT_3D ( 'NONE', #29, #108, #172 ) ;
#247 = APPROVAL ( #248, 'NEURÈENÝ' ) ;
#248 = APPROVAL_STATUS ( 'not_yet_approved' ) ;
#249 = AXIS2_PLACEMENT_3D ( 'NONE', #65, #143, #200 ) ;
#250 = AXIS2_PLACEMENT_3D ( 'NONE', #31, #166, #106 ) ;
#251 = ORIENTED_EDGE ( 'NONE', *, *, #198, .T. ) ;
#252 = VERTEX_POINT ( 'NONE', #242 ) ;
#253 = CYLINDRICAL_SURFACE ( 'NONE', #212, 2.000000000000000000 ) ;
#254 = CIRCLE ( 'NONE', #238, 2.000000000000000000 ) ;
#255 = LINE ( 'NONE', #21, #137 ) ;
ENDSEC;
END-ISO-10303-21;
