ISO-10303-21;
HEADER;
FILE_DESCRIPTION (( 'STEP AP203' ),
    '1' );
FILE_NAME ('79c9.STEP',
    '2023-02-13T12:09:41',
    ( '' ),
    ( '' ),
    'SwSTEP 2.0',
    'SolidWorks 2019',
    '' );
FILE_SCHEMA (( 'CONFIG_CONTROL_DESIGN' ));
ENDSEC;

DATA;
#1 = DATE_AND_TIME ( #19, #12 ) ;
#2 = FACE_OUTER_BOUND ( 'NONE', #79, .T. ) ;
#3 = CYLINDRICAL_SURFACE ( 'NONE', #53, 7.000000000000000000 ) ;
#4 = DIRECTION ( 'NONE',  ( 0.000000000000000000, 0.000000000000000000, 1.000000000000000000 ) ) ;
#5 = APPROVAL_STATUS ( 'not_yet_approved' ) ;
#6 = AXIS2_PLACEMENT_3D ( 'NONE', #225, #46, #169 ) ;
#7 = CYLINDRICAL_SURFACE ( 'NONE', #104, 4.250000000000000000 ) ;
#8 = AXIS2_PLACEMENT_3D ( 'NONE', #61, #141, #162 ) ;
#9 = CARTESIAN_POINT ( 'NONE',  ( 7.000000000000000000, 8.572527594031473190E-16, 5.000000000000000000 ) ) ;
#10 = CARTESIAN_POINT ( 'NONE',  ( -4.250000000000000000, 0.000000000000000000, 500.0000000000000000 ) ) ;
#11 = APPLICATION_CONTEXT ( 'configuration controlled 3d designs of mechanical parts and assemblies' ) ;
#12 = LOCAL_TIME ( 13, 9, 41.00000000000000000, #234 ) ;
#13 = VERTEX_POINT ( 'NONE', #122 ) ;
#14 = CC_DESIGN_DATE_AND_TIME_ASSIGNMENT ( #101, #178, ( #213 ) ) ;
#15 = CARTESIAN_POINT ( 'NONE',  ( 0.000000000000000000, 0.000000000000000000, 5.000000000000000000 ) ) ;
#16 = EDGE_CURVE ( 'NONE', #59, #120, #144, .T. ) ;
#17 = CALENDAR_DATE ( 2023, 13, 2 ) ;
#18 = DIRECTION ( 'NONE',  ( -1.000000000000000000, 0.000000000000000000, 0.000000000000000000 ) ) ;
#19 = CALENDAR_DATE ( 2023, 13, 2 ) ;
#20 = CARTESIAN_POINT ( 'NONE',  ( 0.000000000000000000, 0.000000000000000000, 0.000000000000000000 ) ) ;
#21 = PERSON_AND_ORGANIZATION ( #77, #248 ) ;
#22 = AXIS2_PLACEMENT_3D ( 'NONE', #147, #202, #23 ) ;
#23 = DIRECTION ( 'NONE',  ( 1.000000000000000000, 0.000000000000000000, 0.000000000000000000 ) ) ;
#24 = FACE_OUTER_BOUND ( 'NONE', #174, .T. ) ;
#25 = APPROVAL_ROLE ( '' ) ;
#26 = DIRECTION ( 'NONE',  ( -0.000000000000000000, -0.000000000000000000, -1.000000000000000000 ) ) ;
#27 = LOCAL_TIME ( 13, 9, 41.00000000000000000, #65 ) ;
#28 = AXIS2_PLACEMENT_3D ( 'NONE', #20, #4, #90 ) ;
#29 = DIRECTION ( 'NONE',  ( -1.000000000000000000, 0.000000000000000000, 0.000000000000000000 ) ) ;
#30 = VECTOR ( 'NONE', #218, 1000.000000000000000 ) ;
#31 = CLOSED_SHELL ( 'NONE', ( #204, #48, #156, #241, #72, #95, #167 ) ) ;
#32 = ORIENTED_EDGE ( 'NONE', *, *, #36, .T. ) ;
#33 = APPROVAL_PERSON_ORGANIZATION ( #217, #134, #159 ) ;
#34 = ORIENTED_EDGE ( 'NONE', *, *, #190, .F. ) ;
#35 = ORIENTED_EDGE ( 'NONE', *, *, #91, .F. ) ;
#36 = EDGE_CURVE ( 'NONE', #120, #59, #136, .T. ) ;
#37 = AXIS2_PLACEMENT_3D ( 'NONE', #238, #123, #197 ) ;
#38 = DIRECTION ( 'NONE',  ( 1.000000000000000000, 0.000000000000000000, -0.000000000000000000 ) ) ;
#39 = PERSON_AND_ORGANIZATION ( #77, #248 ) ;
#40 = CARTESIAN_POINT ( 'NONE',  ( 0.000000000000000000, 0.000000000000000000, 5.000000000000000000 ) ) ;
#41 = SHAPE_DEFINITION_REPRESENTATION ( #57, #50 ) ;
#42 = EDGE_LOOP ( 'NONE', ( #135, #124 ) ) ;
#43 = APPROVAL_DATE_TIME ( #1, #134 ) ;
#44 = CYLINDRICAL_SURFACE ( 'NONE', #142, 7.000000000000000000 ) ;
#45 = PERSON_AND_ORGANIZATION ( #77, #248 ) ;
#46 = DIRECTION ( 'NONE',  ( 0.000000000000000000, 0.000000000000000000, 1.000000000000000000 ) ) ;
#47 = COORDINATED_UNIVERSAL_TIME_OFFSET ( 1, 0, .AHEAD. ) ;
#48 = ADVANCED_FACE ( 'NONE', ( #128 ), #44, .T. ) ;
#49 = CARTESIAN_POINT ( 'NONE',  ( -7.000000000000000000, 0.000000000000000000, 5.000000000000000000 ) ) ;
#50 = ADVANCED_BREP_SHAPE_REPRESENTATION ( '79c9', ( #66, #228 ), #194 ) ;
#51 = VECTOR ( 'NONE', #26, 1000.000000000000000 ) ;
#52 = FACE_BOUND ( 'NONE', #97, .T. ) ;
#53 = AXIS2_PLACEMENT_3D ( 'NONE', #255, #177, #253 ) ;
#54 = FACE_OUTER_BOUND ( 'NONE', #126, .T. ) ;
#55 = CC_DESIGN_PERSON_AND_ORGANIZATION_ASSIGNMENT ( #73, #223, ( #213 ) ) ;
#56 = ORIENTED_EDGE ( 'NONE', *, *, #175, .F. ) ;
#57 = PRODUCT_DEFINITION_SHAPE ( 'NONE', 'NONE',  #185 ) ;
#58 = APPLICATION_CONTEXT ( 'configuration controlled 3d designs of mechanical parts and assemblies' ) ;
#59 = VERTEX_POINT ( 'NONE', #143 ) ;
#60 = CC_DESIGN_DATE_AND_TIME_ASSIGNMENT ( #146, #221, ( #185 ) ) ;
#61 = CARTESIAN_POINT ( 'NONE',  ( 0.000000000000000000, 0.000000000000000000, 5.000000000000000000 ) ) ;
#62 = LOCAL_TIME ( 13, 9, 41.00000000000000000, #69 ) ;
#63 = CALENDAR_DATE ( 2023, 13, 2 ) ;
#64 = FACE_OUTER_BOUND ( 'NONE', #188, .T. ) ;
#65 = COORDINATED_UNIVERSAL_TIME_OFFSET ( 1, 0, .AHEAD. ) ;
#66 = MANIFOLD_SOLID_BREP ( 'Pøidat vysunutím3', #31 ) ;
#67 = DIRECTION ( 'NONE',  ( -1.000000000000000000, 0.000000000000000000, 0.000000000000000000 ) ) ;
#68 = CIRCLE ( 'NONE', #37, 4.250000000000000000 ) ;
#69 = COORDINATED_UNIVERSAL_TIME_OFFSET ( 1, 0, .AHEAD. ) ;
#70 = DIRECTION ( 'NONE',  ( 1.000000000000000000, 0.000000000000000000, 0.000000000000000000 ) ) ;
#71 = CC_DESIGN_PERSON_AND_ORGANIZATION_ASSIGNMENT ( #130, #106, ( #185 ) ) ;
#72 = ADVANCED_FACE ( 'NONE', ( #24 ), #111, .F. ) ;
#73 = PERSON_AND_ORGANIZATION ( #77, #248 ) ;
#74 = LINE ( 'NONE', #132, #226 ) ;
#75 = PLANE ( 'NONE',  #99 ) ;
#76 = LOCAL_TIME ( 13, 9, 41.00000000000000000, #47 ) ;
#77 = PERSON ( 'NEURÈENÝ', 'NEURÈENÝ', 'NEURÈENÝ', ('NEURÈENÝ'), ('NEURÈENÝ'), ('NEURÈENÝ') ) ;
#78 = CC_DESIGN_PERSON_AND_ORGANIZATION_ASSIGNMENT ( #242, #180, ( #155 ) ) ;
#79 = EDGE_LOOP ( 'NONE', ( #231, #189 ) ) ;
#80 = ORIENTED_EDGE ( 'NONE', *, *, #94, .F. ) ;
#81 = EDGE_LOOP ( 'NONE', ( #83, #232, #32, #34 ) ) ;
#82 = VECTOR ( 'NONE', #207, 1000.000000000000000 ) ;
#83 = ORIENTED_EDGE ( 'NONE', *, *, #157, .F. ) ;
#84 = DATE_AND_TIME ( #243, #150 ) ;
#85 = DIRECTION ( 'NONE',  ( 0.000000000000000000, 0.000000000000000000, 1.000000000000000000 ) ) ;
#86 = PERSON_AND_ORGANIZATION_ROLE ( 'creator' ) ;
#87 = PLANE ( 'NONE',  #176 ) ;
#88 = DIRECTION ( 'NONE',  ( 0.000000000000000000, 0.000000000000000000, 1.000000000000000000 ) ) ;
#89 = DIRECTION ( 'NONE',  ( 0.000000000000000000, 0.000000000000000000, 1.000000000000000000 ) ) ;
#90 = DIRECTION ( 'NONE',  ( 1.000000000000000000, 0.000000000000000000, -0.000000000000000000 ) ) ;
#91 = EDGE_CURVE ( 'NONE', #250, #120, #164, .T. ) ;
#92 = COORDINATED_UNIVERSAL_TIME_OFFSET ( 1, 0, .AHEAD. ) ;
#93 = DIRECTION ( 'NONE',  ( 0.000000000000000000, 0.000000000000000000, 1.000000000000000000 ) ) ;
#94 = EDGE_CURVE ( 'NONE', #249, #250, #145, .T. ) ;
#95 = ADVANCED_FACE ( 'NONE', ( #107 ), #181, .T. ) ;
#96 = ORIENTED_EDGE ( 'NONE', *, *, #118, .T. ) ;
#97 = EDGE_LOOP ( 'NONE', ( #152, #121 ) ) ;
#98 = EDGE_LOOP ( 'NONE', ( #251, #230, #171, #119 ) ) ;
#99 = AXIS2_PLACEMENT_3D ( 'NONE', #205, #93, #151 ) ;
#100 = CARTESIAN_POINT ( 'NONE',  ( 4.250000000000000000, 5.204748896376250699E-16, 500.0000000000000000 ) ) ;
#101 = DATE_AND_TIME ( #17, #76 ) ;
#102 = DIRECTION ( 'NONE',  ( 0.000000000000000000, 0.000000000000000000, 1.000000000000000000 ) ) ;
#103 = DIRECTION ( 'NONE',  ( 1.000000000000000000, 0.000000000000000000, 0.000000000000000000 ) ) ;
#104 = AXIS2_PLACEMENT_3D ( 'NONE', #184, #149, #29 ) ;
#105 = CC_DESIGN_SECURITY_CLASSIFICATION ( #213, ( #246 ) ) ;
#106 = PERSON_AND_ORGANIZATION_ROLE ( 'creator' ) ;
#107 = FACE_OUTER_BOUND ( 'NONE', #98, .T. ) ;
#108 = PERSON_AND_ORGANIZATION ( #77, #248 ) ;
#109 = APPROVAL ( #5, 'NEURÈENÝ' ) ;
#110 = CC_DESIGN_PERSON_AND_ORGANIZATION_ASSIGNMENT ( #39, #86, ( #246 ) ) ;
#111 = PLANE ( 'NONE',  #28 ) ;
#112 = DATE_AND_TIME ( #163, #27 ) ;
#113 = LINE ( 'NONE', #10, #82 ) ;
#114 = CIRCLE ( 'NONE', #252, 4.250000000000000000 ) ;
#115 = CARTESIAN_POINT ( 'NONE',  ( -4.250000000000000000, 0.000000000000000000, 500.0000000000000000 ) ) ;
#116 = DESIGN_CONTEXT ( 'detailed design', #58, 'design' ) ;
#117 = DIRECTION ( 'NONE',  ( -0.000000000000000000, -0.000000000000000000, -1.000000000000000000 ) ) ;
#118 = EDGE_CURVE ( 'NONE', #13, #153, #186, .T. ) ;
#119 = ORIENTED_EDGE ( 'NONE', *, *, #247, .T. ) ;
#120 = VERTEX_POINT ( 'NONE', #233 ) ;
#121 = ORIENTED_EDGE ( 'NONE', *, *, #118, .F. ) ;
#122 = CARTESIAN_POINT ( 'NONE',  ( 4.250000000000000000, 5.204748896376250699E-16, 5.000000000000000000 ) ) ;
#123 = DIRECTION ( 'NONE',  ( 0.000000000000000000, 0.000000000000000000, 1.000000000000000000 ) ) ;
#124 = ORIENTED_EDGE ( 'NONE', *, *, #157, .T. ) ;
#125 = APPROVAL_STATUS ( 'not_yet_approved' ) ;
#126 = EDGE_LOOP ( 'NONE', ( #56, #216, #96, #154 ) ) ;
#127 = CC_DESIGN_APPROVAL ( #109, ( #246 ) ) ;
#128 = FACE_OUTER_BOUND ( 'NONE', #81, .T. ) ;
#129 = CARTESIAN_POINT ( 'NONE',  ( 0.000000000000000000, 0.000000000000000000, 0.000000000000000000 ) ) ;
#130 = PERSON_AND_ORGANIZATION ( #77, #248 ) ;
#131 = FACE_OUTER_BOUND ( 'NONE', #42, .T. ) ;
#132 = CARTESIAN_POINT ( 'NONE',  ( 4.250000000000000000, 5.204748896376250699E-16, 500.0000000000000000 ) ) ;
#133 = APPROVAL ( #125, 'NEURÈENÝ' ) ;
#134 = APPROVAL ( #254, 'NEURÈENÝ' ) ;
#135 = ORIENTED_EDGE ( 'NONE', *, *, #94, .T. ) ;
#136 = CIRCLE ( 'NONE', #22, 7.000000000000000000 ) ;
#137 = ORIENTED_EDGE ( 'NONE', *, *, #190, .T. ) ;
#138 = VERTEX_POINT ( 'NONE', #100 ) ;
#139 = CC_DESIGN_PERSON_AND_ORGANIZATION_ASSIGNMENT ( #45, #165, ( #246 ) ) ;
#140 = APPROVAL_PERSON_ORGANIZATION ( #108, #133, #25 ) ;
#141 = DIRECTION ( 'NONE',  ( 0.000000000000000000, 0.000000000000000000, 1.000000000000000000 ) ) ;
#142 = AXIS2_PLACEMENT_3D ( 'NONE', #40, #219, #67 ) ;
#143 = CARTESIAN_POINT ( 'NONE',  ( -7.000000000000000000, 0.000000000000000000, 0.000000000000000000 ) ) ;
#144 = CIRCLE ( 'NONE', #208, 7.000000000000000000 ) ;
#145 = CIRCLE ( 'NONE', #173, 7.000000000000000000 ) ;
#146 = DATE_AND_TIME ( #63, #62 ) ;
#147 = CARTESIAN_POINT ( 'NONE',  ( 0.000000000000000000, 0.000000000000000000, 0.000000000000000000 ) ) ;
#148 = APPROVAL_DATE_TIME ( #84, #109 ) ;
#149 = DIRECTION ( 'NONE',  ( -0.000000000000000000, -0.000000000000000000, -1.000000000000000000 ) ) ;
#150 = LOCAL_TIME ( 13, 9, 41.00000000000000000, #92 ) ;
#151 = DIRECTION ( 'NONE',  ( 1.000000000000000000, 0.000000000000000000, -0.000000000000000000 ) ) ;
#152 = ORIENTED_EDGE ( 'NONE', *, *, #247, .F. ) ;
#153 = VERTEX_POINT ( 'NONE', #179 ) ;
#154 = ORIENTED_EDGE ( 'NONE', *, *, #192, .F. ) ;
#155 = PRODUCT ( '79c9', '79c9', '', ( #201 ) ) ;
#156 = ADVANCED_FACE ( 'NONE', ( #64 ), #3, .T. ) ;
#157 = EDGE_CURVE ( 'NONE', #250, #249, #191, .T. ) ;
#158 = DIRECTION ( 'NONE',  ( 1.000000000000000000, 0.000000000000000000, 0.000000000000000000 ) ) ;
#159 = APPROVAL_ROLE ( '' ) ;
#160 = LINE ( 'NONE', #236, #51 ) ;
#161 = CARTESIAN_POINT ( 'NONE',  ( 0.000000000000000000, 0.000000000000000000, 500.0000000000000000 ) ) ;
#162 = DIRECTION ( 'NONE',  ( 1.000000000000000000, 0.000000000000000000, 0.000000000000000000 ) ) ;
#163 = CALENDAR_DATE ( 2023, 13, 2 ) ;
#164 = LINE ( 'NONE', #222, #30 ) ;
#165 = PERSON_AND_ORGANIZATION_ROLE ( 'design_supplier' ) ;
#166 = DIRECTION ( 'NONE',  ( 0.000000000000000000, 0.000000000000000000, 1.000000000000000000 ) ) ;
#167 = ADVANCED_FACE ( 'NONE', ( #2 ), #87, .T. ) ;
#168 = PRODUCT_RELATED_PRODUCT_CATEGORY ( 'detail', '', ( #155 ) ) ;
#169 = DIRECTION ( 'NONE',  ( 1.000000000000000000, 0.000000000000000000, 0.000000000000000000 ) ) ;
#170 = CC_DESIGN_APPROVAL ( #133, ( #185 ) ) ;
#171 = ORIENTED_EDGE ( 'NONE', *, *, #192, .T. ) ;
#172 = CIRCLE ( 'NONE', #6, 4.250000000000000000 ) ;
#173 = AXIS2_PLACEMENT_3D ( 'NONE', #196, #102, #103 ) ;
#174 = EDGE_LOOP ( 'NONE', ( #211, #209 ) ) ;
#175 = EDGE_CURVE ( 'NONE', #138, #240, #68, .T. ) ;
#176 = AXIS2_PLACEMENT_3D ( 'NONE', #214, #85, #38 ) ;
#177 = DIRECTION ( 'NONE',  ( -0.000000000000000000, -0.000000000000000000, -1.000000000000000000 ) ) ;
#178 = DATE_TIME_ROLE ( 'classification_date' ) ;
#179 = CARTESIAN_POINT ( 'NONE',  ( -4.250000000000000000, 0.000000000000000000, 5.000000000000000000 ) ) ;
#180 = PERSON_AND_ORGANIZATION_ROLE ( 'design_owner' ) ;
#181 = CYLINDRICAL_SURFACE ( 'NONE', #229, 4.250000000000000000 ) ;
#182 = DIRECTION ( 'NONE',  ( -0.000000000000000000, -0.000000000000000000, -1.000000000000000000 ) ) ;
#183 = APPROVAL_DATE_TIME ( #112, #133 ) ;
#184 = CARTESIAN_POINT ( 'NONE',  ( 0.000000000000000000, 0.000000000000000000, 500.0000000000000000 ) ) ;
#185 = PRODUCT_DEFINITION ( 'NEZNÁMÝ', '', #246, #116 ) ;
#186 = CIRCLE ( 'NONE', #195, 4.250000000000000000 ) ;
#187 = DIRECTION ( 'NONE',  ( 1.000000000000000000, 0.000000000000000000, 0.000000000000000000 ) ) ;
#188 = EDGE_LOOP ( 'NONE', ( #35, #80, #137, #193 ) ) ;
#189 = ORIENTED_EDGE ( 'NONE', *, *, #175, .T. ) ;
#190 = EDGE_CURVE ( 'NONE', #249, #59, #160, .T. ) ;
#191 = CIRCLE ( 'NONE', #8, 7.000000000000000000 ) ;
#192 = EDGE_CURVE ( 'NONE', #240, #153, #113, .T. ) ;
#193 = ORIENTED_EDGE ( 'NONE', *, *, #16, .T. ) ;
#194 =( GEOMETRIC_REPRESENTATION_CONTEXT ( 3 ) GLOBAL_UNCERTAINTY_ASSIGNED_CONTEXT ( ( #212 ) ) GLOBAL_UNIT_ASSIGNED_CONTEXT ( ( #227, #244, #224 ) ) REPRESENTATION_CONTEXT ( 'NONE', 'WORKASPACE' ) );
#195 = AXIS2_PLACEMENT_3D ( 'NONE', #15, #88, #158 ) ;
#196 = CARTESIAN_POINT ( 'NONE',  ( 0.000000000000000000, 0.000000000000000000, 5.000000000000000000 ) ) ;
#197 = DIRECTION ( 'NONE',  ( 1.000000000000000000, 0.000000000000000000, 0.000000000000000000 ) ) ;
#198 = DIRECTION ( 'NONE',  ( 1.000000000000000000, 0.000000000000000000, 0.000000000000000000 ) ) ;
#199 = DIRECTION ( 'NONE',  ( 0.000000000000000000, 0.000000000000000000, 1.000000000000000000 ) ) ;
#200 = CARTESIAN_POINT ( 'NONE',  ( 0.000000000000000000, 0.000000000000000000, 0.000000000000000000 ) ) ;
#201 = MECHANICAL_CONTEXT ( 'NONE', #11, 'mechanical' ) ;
#202 = DIRECTION ( 'NONE',  ( 0.000000000000000000, 0.000000000000000000, 1.000000000000000000 ) ) ;
#203 = SECURITY_CLASSIFICATION_LEVEL ( 'unclassified' ) ;
#204 = ADVANCED_FACE ( 'NONE', ( #54 ), #7, .T. ) ;
#205 = CARTESIAN_POINT ( 'NONE',  ( 0.000000000000000000, 0.000000000000000000, 5.000000000000000000 ) ) ;
#206 = APPROVAL_PERSON_ORGANIZATION ( #21, #109, #239 ) ;
#207 = DIRECTION ( 'NONE',  ( -0.000000000000000000, -0.000000000000000000, -1.000000000000000000 ) ) ;
#208 = AXIS2_PLACEMENT_3D ( 'NONE', #200, #199, #70 ) ;
#209 = ORIENTED_EDGE ( 'NONE', *, *, #36, .F. ) ;
#210 = CC_DESIGN_APPROVAL ( #134, ( #213 ) ) ;
#211 = ORIENTED_EDGE ( 'NONE', *, *, #16, .F. ) ;
#212 = UNCERTAINTY_MEASURE_WITH_UNIT (LENGTH_MEASURE( 1.000000000000000082E-05 ), #227, 'distance_accuracy_value', 'NONE');
#213 = SECURITY_CLASSIFICATION ( '', '', #203 ) ;
#214 = CARTESIAN_POINT ( 'NONE',  ( 0.000000000000000000, 0.000000000000000000, 500.0000000000000000 ) ) ;
#215 = APPLICATION_PROTOCOL_DEFINITION ( 'international standard', 'config_control_design', 1994, #58 ) ;
#216 = ORIENTED_EDGE ( 'NONE', *, *, #220, .T. ) ;
#217 = PERSON_AND_ORGANIZATION ( #77, #248 ) ;
#218 = DIRECTION ( 'NONE',  ( -0.000000000000000000, -0.000000000000000000, -1.000000000000000000 ) ) ;
#219 = DIRECTION ( 'NONE',  ( -0.000000000000000000, -0.000000000000000000, -1.000000000000000000 ) ) ;
#220 = EDGE_CURVE ( 'NONE', #138, #13, #74, .T. ) ;
#221 = DATE_TIME_ROLE ( 'creation_date' ) ;
#222 = CARTESIAN_POINT ( 'NONE',  ( 7.000000000000000000, 8.572527594031473190E-16, 5.000000000000000000 ) ) ;
#223 = PERSON_AND_ORGANIZATION_ROLE ( 'classification_officer' ) ;
#224 =( NAMED_UNIT ( * ) SI_UNIT ( $, .STERADIAN. ) SOLID_ANGLE_UNIT ( ) );
#225 = CARTESIAN_POINT ( 'NONE',  ( 0.000000000000000000, 0.000000000000000000, 500.0000000000000000 ) ) ;
#226 = VECTOR ( 'NONE', #117, 1000.000000000000000 ) ;
#227 =( LENGTH_UNIT ( ) NAMED_UNIT ( * ) SI_UNIT ( .MILLI., .METRE. ) );
#228 = AXIS2_PLACEMENT_3D ( 'NONE', #129, #89, #198 ) ;
#229 = AXIS2_PLACEMENT_3D ( 'NONE', #161, #182, #18 ) ;
#230 = ORIENTED_EDGE ( 'NONE', *, *, #235, .F. ) ;
#231 = ORIENTED_EDGE ( 'NONE', *, *, #235, .T. ) ;
#232 = ORIENTED_EDGE ( 'NONE', *, *, #91, .T. ) ;
#233 = CARTESIAN_POINT ( 'NONE',  ( 7.000000000000000000, 8.572527594031473190E-16, 0.000000000000000000 ) ) ;
#234 = COORDINATED_UNIVERSAL_TIME_OFFSET ( 1, 0, .AHEAD. ) ;
#235 = EDGE_CURVE ( 'NONE', #240, #138, #172, .T. ) ;
#236 = CARTESIAN_POINT ( 'NONE',  ( -7.000000000000000000, 0.000000000000000000, 5.000000000000000000 ) ) ;
#237 = APPLICATION_PROTOCOL_DEFINITION ( 'international standard', 'config_control_design', 1994, #11 ) ;
#238 = CARTESIAN_POINT ( 'NONE',  ( 0.000000000000000000, 0.000000000000000000, 500.0000000000000000 ) ) ;
#239 = APPROVAL_ROLE ( '' ) ;
#240 = VERTEX_POINT ( 'NONE', #115 ) ;
#241 = ADVANCED_FACE ( 'NONE', ( #52, #131 ), #75, .T. ) ;
#242 = PERSON_AND_ORGANIZATION ( #77, #248 ) ;
#243 = CALENDAR_DATE ( 2023, 13, 2 ) ;
#244 =( NAMED_UNIT ( * ) PLANE_ANGLE_UNIT ( ) SI_UNIT ( $, .RADIAN. ) );
#245 = CARTESIAN_POINT ( 'NONE',  ( 0.000000000000000000, 0.000000000000000000, 5.000000000000000000 ) ) ;
#246 = PRODUCT_DEFINITION_FORMATION_WITH_SPECIFIED_SOURCE ( 'LIBOVOLNÝ', '', #155, .NOT_KNOWN. ) ;
#247 = EDGE_CURVE ( 'NONE', #153, #13, #114, .T. ) ;
#248 = ORGANIZATION ( 'NEURÈENÝ', 'NEURÈENÝ', '' ) ;
#249 = VERTEX_POINT ( 'NONE', #49 ) ;
#250 = VERTEX_POINT ( 'NONE', #9 ) ;
#251 = ORIENTED_EDGE ( 'NONE', *, *, #220, .F. ) ;
#252 = AXIS2_PLACEMENT_3D ( 'NONE', #245, #166, #187 ) ;
#253 = DIRECTION ( 'NONE',  ( -1.000000000000000000, 0.000000000000000000, 0.000000000000000000 ) ) ;
#254 = APPROVAL_STATUS ( 'not_yet_approved' ) ;
#255 = CARTESIAN_POINT ( 'NONE',  ( 0.000000000000000000, 0.000000000000000000, 5.000000000000000000 ) ) ;
ENDSEC;
END-ISO-10303-21;
