ISO-10303-21;
HEADER;
FILE_DESCRIPTION (( 'STEP AP203' ),
    '1' );
FILE_NAME ('3833.STEP',
    '2023-02-13T12:52:54',
    ( '' ),
    ( '' ),
    'SwSTEP 2.0',
    'SolidWorks 2019',
    '' );
FILE_SCHEMA (( 'CONFIG_CONTROL_DESIGN' ));
ENDSEC;

DATA;
#1 = CIRCLE ( 'NONE', #32, 7.000000000000000000 ) ;
#2 = EDGE_LOOP ( 'NONE', ( #185, #85, #82, #4 ) ) ;
#3 = COORDINATED_UNIVERSAL_TIME_OFFSET ( 1, 0, .AHEAD. ) ;
#4 = ORIENTED_EDGE ( 'NONE', *, *, #200, .T. ) ;
#5 = EDGE_CURVE ( 'NONE', #37, #175, #135, .T. ) ;
#6 = PERSON_AND_ORGANIZATION ( #224, #127 ) ;
#7 = DIRECTION ( 'NONE',  ( 1.000000000000000000, 0.000000000000000000, 0.000000000000000000 ) ) ;
#8 = APPLICATION_CONTEXT ( 'configuration controlled 3d designs of mechanical parts and assemblies' ) ;
#9 = APPROVAL_ROLE ( '' ) ;
#10 = APPROVAL_STATUS ( 'not_yet_approved' ) ;
#11 = CARTESIAN_POINT ( 'NONE',  ( -7.000000000000000000, 0.000000000000000000, 5.000000000000000000 ) ) ;
#12 = DIRECTION ( 'NONE',  ( 1.000000000000000000, 0.000000000000000000, 0.000000000000000000 ) ) ;
#13 = APPROVAL_PERSON_ORGANIZATION ( #67, #253, #97 ) ;
#14 = DIRECTION ( 'NONE',  ( 1.000000000000000000, 0.000000000000000000, 0.000000000000000000 ) ) ;
#15 = DIRECTION ( 'NONE',  ( 0.000000000000000000, 0.000000000000000000, 1.000000000000000000 ) ) ;
#16 = FACE_OUTER_BOUND ( 'NONE', #138, .T. ) ;
#17 = DIRECTION ( 'NONE',  ( 1.000000000000000000, 0.000000000000000000, -0.000000000000000000 ) ) ;
#18 = CC_DESIGN_SECURITY_CLASSIFICATION ( #60, ( #33 ) ) ;
#19 = ORIENTED_EDGE ( 'NONE', *, *, #26, .T. ) ;
#20 = ORIENTED_EDGE ( 'NONE', *, *, #5, .T. ) ;
#21 = PERSON_AND_ORGANIZATION ( #224, #127 ) ;
#22 = UNCERTAINTY_MEASURE_WITH_UNIT (LENGTH_MEASURE( 1.000000000000000082E-05 ), #63, 'distance_accuracy_value', 'NONE');
#23 = VERTEX_POINT ( 'NONE', #236 ) ;
#24 = PERSON_AND_ORGANIZATION ( #224, #127 ) ;
#25 = VERTEX_POINT ( 'NONE', #68 ) ;
#26 = EDGE_CURVE ( 'NONE', #199, #121, #170, .T. ) ;
#27 = AXIS2_PLACEMENT_3D ( 'NONE', #56, #35, #194 ) ;
#28 = DATE_AND_TIME ( #245, #248 ) ;
#29 = CARTESIAN_POINT ( 'NONE',  ( 0.000000000000000000, 0.000000000000000000, 5.000000000000000000 ) ) ;
#30 = CC_DESIGN_DATE_AND_TIME_ASSIGNMENT ( #58, #134, ( #183 ) ) ;
#31 = DIRECTION ( 'NONE',  ( -1.000000000000000000, 0.000000000000000000, 0.000000000000000000 ) ) ;
#32 = AXIS2_PLACEMENT_3D ( 'NONE', #229, #15, #147 ) ;
#33 = PRODUCT_DEFINITION_FORMATION_WITH_SPECIFIED_SOURCE ( 'LIBOVOLNÝ', '', #41, .NOT_KNOWN. ) ;
#34 = CARTESIAN_POINT ( 'NONE',  ( -4.250000000000000000, 0.000000000000000000, 160.0000000000000000 ) ) ;
#35 = DIRECTION ( 'NONE',  ( -0.000000000000000000, -0.000000000000000000, -1.000000000000000000 ) ) ;
#36 = CARTESIAN_POINT ( 'NONE',  ( 0.000000000000000000, 0.000000000000000000, 5.000000000000000000 ) ) ;
#37 = VERTEX_POINT ( 'NONE', #215 ) ;
#38 = EDGE_LOOP ( 'NONE', ( #155, #213, #20, #59 ) ) ;
#39 = EDGE_CURVE ( 'NONE', #199, #25, #122, .T. ) ;
#40 = ORIENTED_EDGE ( 'NONE', *, *, #26, .F. ) ;
#41 = PRODUCT ( '3833', '3833', '', ( #254 ) ) ;
#42 = AXIS2_PLACEMENT_3D ( 'NONE', #211, #210, #192 ) ;
#43 = ORIENTED_EDGE ( 'NONE', *, *, #5, .F. ) ;
#44 = DIRECTION ( 'NONE',  ( 1.000000000000000000, 0.000000000000000000, 0.000000000000000000 ) ) ;
#45 = ADVANCED_FACE ( 'NONE', ( #240 ), #109, .T. ) ;
#46 = AXIS2_PLACEMENT_3D ( 'NONE', #36, #94, #12 ) ;
#47 = COORDINATED_UNIVERSAL_TIME_OFFSET ( 1, 0, .AHEAD. ) ;
#48 = COORDINATED_UNIVERSAL_TIME_OFFSET ( 1, 0, .AHEAD. ) ;
#49 = DATE_TIME_ROLE ( 'classification_date' ) ;
#50 = CARTESIAN_POINT ( 'NONE',  ( 0.000000000000000000, 0.000000000000000000, 160.0000000000000000 ) ) ;
#51 = AXIS2_PLACEMENT_3D ( 'NONE', #50, #207, #111 ) ;
#52 = DIRECTION ( 'NONE',  ( 1.000000000000000000, 0.000000000000000000, -0.000000000000000000 ) ) ;
#53 = DIRECTION ( 'NONE',  ( 0.000000000000000000, 0.000000000000000000, 1.000000000000000000 ) ) ;
#54 = DIRECTION ( 'NONE',  ( 1.000000000000000000, 0.000000000000000000, 0.000000000000000000 ) ) ;
#55 = EDGE_CURVE ( 'NONE', #121, #23, #190, .T. ) ;
#56 = CARTESIAN_POINT ( 'NONE',  ( 0.000000000000000000, 0.000000000000000000, 160.0000000000000000 ) ) ;
#57 = FACE_OUTER_BOUND ( 'NONE', #220, .T. ) ;
#58 = DATE_AND_TIME ( #234, #157 ) ;
#59 = ORIENTED_EDGE ( 'NONE', *, *, #205, .F. ) ;
#60 = SECURITY_CLASSIFICATION ( '', '', #72 ) ;
#61 = DIRECTION ( 'NONE',  ( 0.000000000000000000, 0.000000000000000000, 1.000000000000000000 ) ) ;
#62 = APPROVAL ( #162, 'NEURÈENÝ' ) ;
#63 =( LENGTH_UNIT ( ) NAMED_UNIT ( * ) SI_UNIT ( .MILLI., .METRE. ) );
#64 = VERTEX_POINT ( 'NONE', #209 ) ;
#65 = DIRECTION ( 'NONE',  ( -0.000000000000000000, -0.000000000000000000, -1.000000000000000000 ) ) ;
#66 = ORIENTED_EDGE ( 'NONE', *, *, #39, .F. ) ;
#67 = PERSON_AND_ORGANIZATION ( #224, #127 ) ;
#68 = CARTESIAN_POINT ( 'NONE',  ( 7.000000000000000000, 8.572527594031473190E-16, 0.000000000000000000 ) ) ;
#69 = COORDINATED_UNIVERSAL_TIME_OFFSET ( 1, 0, .AHEAD. ) ;
#70 = MANIFOLD_SOLID_BREP ( 'Pøidat vysunutím3', #88 ) ;
#71 = AXIS2_PLACEMENT_3D ( 'NONE', #247, #252, #232 ) ;
#72 = SECURITY_CLASSIFICATION_LEVEL ( 'unclassified' ) ;
#73 = CARTESIAN_POINT ( 'NONE',  ( 7.000000000000000000, 8.572527594031473190E-16, 5.000000000000000000 ) ) ;
#74 = CARTESIAN_POINT ( 'NONE',  ( 0.000000000000000000, 0.000000000000000000, 5.000000000000000000 ) ) ;
#75 = FACE_BOUND ( 'NONE', #154, .T. ) ;
#76 = DIRECTION ( 'NONE',  ( -0.000000000000000000, -0.000000000000000000, -1.000000000000000000 ) ) ;
#77 = DIRECTION ( 'NONE',  ( -0.000000000000000000, -0.000000000000000000, -1.000000000000000000 ) ) ;
#78 = PERSON_AND_ORGANIZATION_ROLE ( 'design_owner' ) ;
#79 = DIRECTION ( 'NONE',  ( 0.000000000000000000, 0.000000000000000000, 1.000000000000000000 ) ) ;
#80 = EDGE_CURVE ( 'NONE', #121, #199, #123, .T. ) ;
#81 = APPROVAL_STATUS ( 'not_yet_approved' ) ;
#82 = ORIENTED_EDGE ( 'NONE', *, *, #205, .T. ) ;
#83 = CC_DESIGN_DATE_AND_TIME_ASSIGNMENT ( #141, #49, ( #60 ) ) ;
#84 = APPLICATION_PROTOCOL_DEFINITION ( 'international standard', 'config_control_design', 1994, #8 ) ;
#85 = ORIENTED_EDGE ( 'NONE', *, *, #146, .F. ) ;
#86 = PERSON_AND_ORGANIZATION_ROLE ( 'creator' ) ;
#87 = EDGE_CURVE ( 'NONE', #64, #119, #198, .T. ) ;
#88 = CLOSED_SHELL ( 'NONE', ( #246, #251, #219, #153, #130, #45, #165 ) ) ;
#89 = PERSON_AND_ORGANIZATION ( #224, #127 ) ;
#90 = EDGE_CURVE ( 'NONE', #23, #25, #1, .T. ) ;
#91 = FACE_OUTER_BOUND ( 'NONE', #106, .T. ) ;
#92 = AXIS2_PLACEMENT_3D ( 'NONE', #112, #228, #167 ) ;
#93 = CARTESIAN_POINT ( 'NONE',  ( -4.250000000000000000, 0.000000000000000000, 160.0000000000000000 ) ) ;
#94 = DIRECTION ( 'NONE',  ( 0.000000000000000000, 0.000000000000000000, 1.000000000000000000 ) ) ;
#95 = CARTESIAN_POINT ( 'NONE',  ( 0.000000000000000000, 0.000000000000000000, 0.000000000000000000 ) ) ;
#96 = CC_DESIGN_APPROVAL ( #253, ( #183 ) ) ;
#97 = APPROVAL_ROLE ( '' ) ;
#98 = EDGE_LOOP ( 'NONE', ( #178, #102 ) ) ;
#99 = AXIS2_PLACEMENT_3D ( 'NONE', #95, #142, #17 ) ;
#100 = PERSON_AND_ORGANIZATION_ROLE ( 'creator' ) ;
#101 = AXIS2_PLACEMENT_3D ( 'NONE', #74, #227, #52 ) ;
#102 = ORIENTED_EDGE ( 'NONE', *, *, #87, .T. ) ;
#103 = EDGE_CURVE ( 'NONE', #25, #23, #177, .T. ) ;
#104 = CARTESIAN_POINT ( 'NONE',  ( 0.000000000000000000, 0.000000000000000000, 5.000000000000000000 ) ) ;
#105 = PERSON_AND_ORGANIZATION_ROLE ( 'design_supplier' ) ;
#106 = EDGE_LOOP ( 'NONE', ( #239, #19 ) ) ;
#107 =( GEOMETRIC_REPRESENTATION_CONTEXT ( 3 ) GLOBAL_UNCERTAINTY_ASSIGNED_CONTEXT ( ( #22 ) ) GLOBAL_UNIT_ASSIGNED_CONTEXT ( ( #63, #217, #176 ) ) REPRESENTATION_CONTEXT ( 'NONE', 'WORKASPACE' ) );
#108 = APPROVAL_DATE_TIME ( #28, #62 ) ;
#109 = CYLINDRICAL_SURFACE ( 'NONE', #51, 4.250000000000000000 ) ;
#110 = LOCAL_TIME ( 13, 52, 54.00000000000000000, #69 ) ;
#111 = DIRECTION ( 'NONE',  ( -1.000000000000000000, 0.000000000000000000, 0.000000000000000000 ) ) ;
#112 = CARTESIAN_POINT ( 'NONE',  ( 0.000000000000000000, 0.000000000000000000, 160.0000000000000000 ) ) ;
#113 = DIRECTION ( 'NONE',  ( -0.000000000000000000, -0.000000000000000000, -1.000000000000000000 ) ) ;
#114 = PLANE ( 'NONE',  #101 ) ;
#115 = CC_DESIGN_PERSON_AND_ORGANIZATION_ASSIGNMENT ( #186, #105, ( #33 ) ) ;
#116 = CARTESIAN_POINT ( 'NONE',  ( 0.000000000000000000, 0.000000000000000000, 160.0000000000000000 ) ) ;
#117 = ORIENTED_EDGE ( 'NONE', *, *, #90, .T. ) ;
#118 = APPROVAL_DATE_TIME ( #148, #253 ) ;
#119 = VERTEX_POINT ( 'NONE', #34 ) ;
#120 = CARTESIAN_POINT ( 'NONE',  ( 0.000000000000000000, 0.000000000000000000, 0.000000000000000000 ) ) ;
#121 = VERTEX_POINT ( 'NONE', #132 ) ;
#122 = LINE ( 'NONE', #73, #206 ) ;
#123 = CIRCLE ( 'NONE', #46, 7.000000000000000000 ) ;
#124 = APPROVAL ( #10, 'NEURÈENÝ' ) ;
#125 = APPROVAL_DATE_TIME ( #187, #124 ) ;
#126 = APPROVAL_ROLE ( '' ) ;
#127 = ORGANIZATION ( 'NEURÈENÝ', 'NEURÈENÝ', '' ) ;
#128 = FACE_OUTER_BOUND ( 'NONE', #98, .T. ) ;
#129 = CARTESIAN_POINT ( 'NONE',  ( 0.000000000000000000, 0.000000000000000000, 5.000000000000000000 ) ) ;
#130 = ADVANCED_FACE ( 'NONE', ( #57 ), #195, .F. ) ;
#131 = FACE_OUTER_BOUND ( 'NONE', #38, .T. ) ;
#132 = CARTESIAN_POINT ( 'NONE',  ( -7.000000000000000000, 0.000000000000000000, 5.000000000000000000 ) ) ;
#133 = CC_DESIGN_PERSON_AND_ORGANIZATION_ASSIGNMENT ( #6, #78, ( #41 ) ) ;
#134 = DATE_TIME_ROLE ( 'creation_date' ) ;
#135 = CIRCLE ( 'NONE', #156, 4.250000000000000000 ) ;
#136 = ORIENTED_EDGE ( 'NONE', *, *, #103, .F. ) ;
#137 = CIRCLE ( 'NONE', #150, 4.250000000000000000 ) ;
#138 = EDGE_LOOP ( 'NONE', ( #40, #139, #196, #255 ) ) ;
#139 = ORIENTED_EDGE ( 'NONE', *, *, #39, .T. ) ;
#140 = ORIENTED_EDGE ( 'NONE', *, *, #90, .F. ) ;
#141 = DATE_AND_TIME ( #160, #180 ) ;
#142 = DIRECTION ( 'NONE',  ( 0.000000000000000000, 0.000000000000000000, 1.000000000000000000 ) ) ;
#143 = CYLINDRICAL_SURFACE ( 'NONE', #189, 7.000000000000000000 ) ;
#144 = DIRECTION ( 'NONE',  ( 0.000000000000000000, 0.000000000000000000, 1.000000000000000000 ) ) ;
#145 = DIRECTION ( 'NONE',  ( -0.000000000000000000, -0.000000000000000000, -1.000000000000000000 ) ) ;
#146 = EDGE_CURVE ( 'NONE', #119, #64, #188, .T. ) ;
#147 = DIRECTION ( 'NONE',  ( 1.000000000000000000, 0.000000000000000000, 0.000000000000000000 ) ) ;
#148 = DATE_AND_TIME ( #173, #172 ) ;
#149 = ORIENTED_EDGE ( 'NONE', *, *, #55, .T. ) ;
#150 = AXIS2_PLACEMENT_3D ( 'NONE', #29, #144, #14 ) ;
#151 = COORDINATED_UNIVERSAL_TIME_OFFSET ( 1, 0, .AHEAD. ) ;
#152 = ADVANCED_BREP_SHAPE_REPRESENTATION ( '3833', ( #70, #161 ), #107 ) ;
#153 = ADVANCED_FACE ( 'NONE', ( #75, #91 ), #114, .T. ) ;
#154 = EDGE_LOOP ( 'NONE', ( #181, #43 ) ) ;
#155 = ORIENTED_EDGE ( 'NONE', *, *, #87, .F. ) ;
#156 = AXIS2_PLACEMENT_3D ( 'NONE', #104, #79, #7 ) ;
#157 = LOCAL_TIME ( 13, 52, 54.00000000000000000, #3 ) ;
#158 = PERSON_AND_ORGANIZATION_ROLE ( 'classification_officer' ) ;
#159 = DESIGN_CONTEXT ( 'detailed design', #8, 'design' ) ;
#160 = CALENDAR_DATE ( 2023, 13, 2 ) ;
#161 = AXIS2_PLACEMENT_3D ( 'NONE', #120, #174, #216 ) ;
#162 = APPROVAL_STATUS ( 'not_yet_approved' ) ;
#163 = VECTOR ( 'NONE', #113, 1000.000000000000000 ) ;
#164 = CARTESIAN_POINT ( 'NONE',  ( 4.250000000000000000, 5.204748896376250699E-16, 160.0000000000000000 ) ) ;
#165 = ADVANCED_FACE ( 'NONE', ( #128 ), #193, .T. ) ;
#166 = AXIS2_PLACEMENT_3D ( 'NONE', #197, #65, #201 ) ;
#167 = DIRECTION ( 'NONE',  ( 1.000000000000000000, 0.000000000000000000, -0.000000000000000000 ) ) ;
#168 = LINE ( 'NONE', #93, #214 ) ;
#169 = PRODUCT_RELATED_PRODUCT_CATEGORY ( 'detail', '', ( #41 ) ) ;
#170 = CIRCLE ( 'NONE', #235, 7.000000000000000000 ) ;
#171 = CYLINDRICAL_SURFACE ( 'NONE', #166, 7.000000000000000000 ) ;
#172 = LOCAL_TIME ( 13, 52, 54.00000000000000000, #151 ) ;
#173 = CALENDAR_DATE ( 2023, 13, 2 ) ;
#174 = DIRECTION ( 'NONE',  ( 0.000000000000000000, 0.000000000000000000, 1.000000000000000000 ) ) ;
#175 = VERTEX_POINT ( 'NONE', #208 ) ;
#176 =( NAMED_UNIT ( * ) SI_UNIT ( $, .STERADIAN. ) SOLID_ANGLE_UNIT ( ) );
#177 = CIRCLE ( 'NONE', #71, 7.000000000000000000 ) ;
#178 = ORIENTED_EDGE ( 'NONE', *, *, #146, .T. ) ;
#179 = CC_DESIGN_PERSON_AND_ORGANIZATION_ASSIGNMENT ( #89, #86, ( #33 ) ) ;
#180 = LOCAL_TIME ( 13, 52, 54.00000000000000000, #48 ) ;
#181 = ORIENTED_EDGE ( 'NONE', *, *, #200, .F. ) ;
#182 = APPLICATION_PROTOCOL_DEFINITION ( 'international standard', 'config_control_design', 1994, #233 ) ;
#183 = PRODUCT_DEFINITION ( 'NEZNÁMÝ', '', #33, #159 ) ;
#184 = PERSON_AND_ORGANIZATION ( #224, #127 ) ;
#185 = ORIENTED_EDGE ( 'NONE', *, *, #212, .F. ) ;
#186 = PERSON_AND_ORGANIZATION ( #224, #127 ) ;
#187 = DATE_AND_TIME ( #204, #110 ) ;
#188 = CIRCLE ( 'NONE', #243, 4.250000000000000000 ) ;
#189 = AXIS2_PLACEMENT_3D ( 'NONE', #129, #145, #31 ) ;
#190 = LINE ( 'NONE', #11, #163 ) ;
#191 = CARTESIAN_POINT ( 'NONE',  ( 7.000000000000000000, 8.572527594031473190E-16, 5.000000000000000000 ) ) ;
#192 = DIRECTION ( 'NONE',  ( 1.000000000000000000, 0.000000000000000000, 0.000000000000000000 ) ) ;
#193 = PLANE ( 'NONE',  #92 ) ;
#194 = DIRECTION ( 'NONE',  ( -1.000000000000000000, 0.000000000000000000, 0.000000000000000000 ) ) ;
#195 = PLANE ( 'NONE',  #99 ) ;
#196 = ORIENTED_EDGE ( 'NONE', *, *, #103, .T. ) ;
#197 = CARTESIAN_POINT ( 'NONE',  ( 0.000000000000000000, 0.000000000000000000, 5.000000000000000000 ) ) ;
#198 = CIRCLE ( 'NONE', #42, 4.250000000000000000 ) ;
#199 = VERTEX_POINT ( 'NONE', #191 ) ;
#200 = EDGE_CURVE ( 'NONE', #175, #37, #137, .T. ) ;
#201 = DIRECTION ( 'NONE',  ( -1.000000000000000000, 0.000000000000000000, 0.000000000000000000 ) ) ;
#202 = ORIENTED_EDGE ( 'NONE', *, *, #80, .F. ) ;
#203 = APPROVAL_PERSON_ORGANIZATION ( #184, #124, #9 ) ;
#204 = CALENDAR_DATE ( 2023, 13, 2 ) ;
#205 = EDGE_CURVE ( 'NONE', #119, #175, #168, .T. ) ;
#206 = VECTOR ( 'NONE', #226, 1000.000000000000000 ) ;
#207 = DIRECTION ( 'NONE',  ( -0.000000000000000000, -0.000000000000000000, -1.000000000000000000 ) ) ;
#208 = CARTESIAN_POINT ( 'NONE',  ( -4.250000000000000000, 0.000000000000000000, 5.000000000000000000 ) ) ;
#209 = CARTESIAN_POINT ( 'NONE',  ( 4.250000000000000000, 5.204748896376250699E-16, 160.0000000000000000 ) ) ;
#210 = DIRECTION ( 'NONE',  ( 0.000000000000000000, 0.000000000000000000, 1.000000000000000000 ) ) ;
#211 = CARTESIAN_POINT ( 'NONE',  ( 0.000000000000000000, 0.000000000000000000, 160.0000000000000000 ) ) ;
#212 = EDGE_CURVE ( 'NONE', #64, #37, #250, .T. ) ;
#213 = ORIENTED_EDGE ( 'NONE', *, *, #212, .T. ) ;
#214 = VECTOR ( 'NONE', #76, 1000.000000000000000 ) ;
#215 = CARTESIAN_POINT ( 'NONE',  ( 4.250000000000000000, 5.204748896376250699E-16, 5.000000000000000000 ) ) ;
#216 = DIRECTION ( 'NONE',  ( 1.000000000000000000, 0.000000000000000000, 0.000000000000000000 ) ) ;
#217 =( NAMED_UNIT ( * ) PLANE_ANGLE_UNIT ( ) SI_UNIT ( $, .RADIAN. ) );
#218 = PRODUCT_DEFINITION_SHAPE ( 'NONE', 'NONE',  #183 ) ;
#219 = ADVANCED_FACE ( 'NONE', ( #249 ), #143, .T. ) ;
#220 = EDGE_LOOP ( 'NONE', ( #140, #136 ) ) ;
#221 = CC_DESIGN_APPROVAL ( #62, ( #33 ) ) ;
#222 = CARTESIAN_POINT ( 'NONE',  ( 0.000000000000000000, 0.000000000000000000, 5.000000000000000000 ) ) ;
#223 = CC_DESIGN_PERSON_AND_ORGANIZATION_ASSIGNMENT ( #21, #100, ( #183 ) ) ;
#224 = PERSON ( 'NEURÈENÝ', 'NEURÈENÝ', 'NEURÈENÝ', ('NEURÈENÝ'), ('NEURÈENÝ'), ('NEURÈENÝ') ) ;
#225 = PERSON_AND_ORGANIZATION ( #224, #127 ) ;
#226 = DIRECTION ( 'NONE',  ( -0.000000000000000000, -0.000000000000000000, -1.000000000000000000 ) ) ;
#227 = DIRECTION ( 'NONE',  ( 0.000000000000000000, 0.000000000000000000, 1.000000000000000000 ) ) ;
#228 = DIRECTION ( 'NONE',  ( 0.000000000000000000, 0.000000000000000000, 1.000000000000000000 ) ) ;
#229 = CARTESIAN_POINT ( 'NONE',  ( 0.000000000000000000, 0.000000000000000000, 0.000000000000000000 ) ) ;
#230 = CYLINDRICAL_SURFACE ( 'NONE', #27, 4.250000000000000000 ) ;
#231 = APPROVAL_PERSON_ORGANIZATION ( #24, #62, #126 ) ;
#232 = DIRECTION ( 'NONE',  ( 1.000000000000000000, 0.000000000000000000, 0.000000000000000000 ) ) ;
#233 = APPLICATION_CONTEXT ( 'configuration controlled 3d designs of mechanical parts and assemblies' ) ;
#234 = CALENDAR_DATE ( 2023, 13, 2 ) ;
#235 = AXIS2_PLACEMENT_3D ( 'NONE', #222, #61, #44 ) ;
#236 = CARTESIAN_POINT ( 'NONE',  ( -7.000000000000000000, 0.000000000000000000, 0.000000000000000000 ) ) ;
#237 = VECTOR ( 'NONE', #77, 1000.000000000000000 ) ;
#238 = EDGE_LOOP ( 'NONE', ( #66, #202, #149, #117 ) ) ;
#239 = ORIENTED_EDGE ( 'NONE', *, *, #80, .T. ) ;
#240 = FACE_OUTER_BOUND ( 'NONE', #2, .T. ) ;
#241 = SHAPE_DEFINITION_REPRESENTATION ( #218, #152 ) ;
#242 = CC_DESIGN_PERSON_AND_ORGANIZATION_ASSIGNMENT ( #225, #158, ( #60 ) ) ;
#243 = AXIS2_PLACEMENT_3D ( 'NONE', #116, #53, #54 ) ;
#244 = CC_DESIGN_APPROVAL ( #124, ( #60 ) ) ;
#245 = CALENDAR_DATE ( 2023, 13, 2 ) ;
#246 = ADVANCED_FACE ( 'NONE', ( #131 ), #230, .T. ) ;
#247 = CARTESIAN_POINT ( 'NONE',  ( 0.000000000000000000, 0.000000000000000000, 0.000000000000000000 ) ) ;
#248 = LOCAL_TIME ( 13, 52, 54.00000000000000000, #47 ) ;
#249 = FACE_OUTER_BOUND ( 'NONE', #238, .T. ) ;
#250 = LINE ( 'NONE', #164, #237 ) ;
#251 = ADVANCED_FACE ( 'NONE', ( #16 ), #171, .T. ) ;
#252 = DIRECTION ( 'NONE',  ( 0.000000000000000000, 0.000000000000000000, 1.000000000000000000 ) ) ;
#253 = APPROVAL ( #81, 'NEURÈENÝ' ) ;
#254 = MECHANICAL_CONTEXT ( 'NONE', #233, 'mechanical' ) ;
#255 = ORIENTED_EDGE ( 'NONE', *, *, #55, .F. ) ;
ENDSEC;
END-ISO-10303-21;
