ISO-10303-21;
HEADER;
FILE_DESCRIPTION (( 'STEP AP203' ),
    '1' );
FILE_NAME ('247d.STEP',
    '2023-02-13T10:21:09',
    ( '' ),
    ( '' ),
    'SwSTEP 2.0',
    'SolidWorks 2019',
    '' );
FILE_SCHEMA (( 'CONFIG_CONTROL_DESIGN' ));
ENDSEC;

DATA;
#1 = VERTEX_POINT ( 'NONE', #3 ) ;
#2 = ORIENTED_EDGE ( 'NONE', *, *, #249, .T. ) ;
#3 = CARTESIAN_POINT ( 'NONE',  ( 8.000000000000000000, 9.797174393178825657E-16, 0.000000000000000000 ) ) ;
#4 = ORIENTED_EDGE ( 'NONE', *, *, #103, .T. ) ;
#5 = FACE_OUTER_BOUND ( 'NONE', #188, .T. ) ;
#6 = ADVANCED_FACE ( 'NONE', ( #185 ), #84, .T. ) ;
#7 = PERSON_AND_ORGANIZATION_ROLE ( 'creator' ) ;
#8 = DIRECTION ( 'NONE',  ( 1.000000000000000000, 0.000000000000000000, 0.000000000000000000 ) ) ;
#9 = PERSON_AND_ORGANIZATION_ROLE ( 'classification_officer' ) ;
#10 = VERTEX_POINT ( 'NONE', #32 ) ;
#11 = UNCERTAINTY_MEASURE_WITH_UNIT (LENGTH_MEASURE( 1.000000000000000082E-05 ), #52, 'distance_accuracy_value', 'NONE');
#12 = CIRCLE ( 'NONE', #97, 5.500000000000000000 ) ;
#13 = CC_DESIGN_DATE_AND_TIME_ASSIGNMENT ( #190, #209, ( #220 ) ) ;
#14 = CARTESIAN_POINT ( 'NONE',  ( -5.500000000000000000, 0.000000000000000000, 500.0000000000000000 ) ) ;
#15 = CLOSED_SHELL ( 'NONE', ( #77, #198, #152, #194, #41, #53, #6 ) ) ;
#16 = CC_DESIGN_DATE_AND_TIME_ASSIGNMENT ( #184, #34, ( #65 ) ) ;
#17 = LINE ( 'NONE', #250, #172 ) ;
#18 = LOCAL_TIME ( 11, 21, 9.000000000000000000, #187 ) ;
#19 =( NAMED_UNIT ( * ) SI_UNIT ( $, .STERADIAN. ) SOLID_ANGLE_UNIT ( ) );
#20 = EDGE_LOOP ( 'NONE', ( #182, #99 ) ) ;
#21 = CARTESIAN_POINT ( 'NONE',  ( -8.000000000000000000, 0.000000000000000000, 5.000000000000000000 ) ) ;
#22 = EDGE_CURVE ( 'NONE', #195, #1, #70, .T. ) ;
#23 = DIRECTION ( 'NONE',  ( -0.000000000000000000, -0.000000000000000000, -1.000000000000000000 ) ) ;
#24 = AXIS2_PLACEMENT_3D ( 'NONE', #122, #202, #100 ) ;
#25 = CYLINDRICAL_SURFACE ( 'NONE', #24, 5.500000000000000000 ) ;
#26 = FACE_OUTER_BOUND ( 'NONE', #27, .T. ) ;
#27 = EDGE_LOOP ( 'NONE', ( #81, #140, #119, #224 ) ) ;
#28 = APPROVAL_DATE_TIME ( #49, #96 ) ;
#29 = ORIENTED_EDGE ( 'NONE', *, *, #80, .F. ) ;
#30 = AXIS2_PLACEMENT_3D ( 'NONE', #212, #78, #56 ) ;
#31 = APPROVAL_ROLE ( '' ) ;
#32 = CARTESIAN_POINT ( 'NONE',  ( 5.500000000000000000, 6.735557395310442023E-16, 5.000000000000000000 ) ) ;
#33 = EDGE_CURVE ( 'NONE', #181, #175, #245, .T. ) ;
#34 = DATE_TIME_ROLE ( 'creation_date' ) ;
#35 = DIRECTION ( 'NONE',  ( -1.000000000000000000, 0.000000000000000000, 0.000000000000000000 ) ) ;
#36 = APPROVAL ( #125, 'NEURÈENÝ' ) ;
#37 = DIRECTION ( 'NONE',  ( 1.000000000000000000, 0.000000000000000000, 0.000000000000000000 ) ) ;
#38 = CARTESIAN_POINT ( 'NONE',  ( 0.000000000000000000, 0.000000000000000000, 500.0000000000000000 ) ) ;
#39 = CC_DESIGN_APPROVAL ( #36, ( #220 ) ) ;
#40 = DIRECTION ( 'NONE',  ( 0.000000000000000000, 0.000000000000000000, 1.000000000000000000 ) ) ;
#41 = ADVANCED_FACE ( 'NONE', ( #167 ), #240, .F. ) ;
#42 = LINE ( 'NONE', #171, #156 ) ;
#43 = MECHANICAL_CONTEXT ( 'NONE', #117, 'mechanical' ) ;
#44 = ORIENTED_EDGE ( 'NONE', *, *, #239, .F. ) ;
#45 = ORIENTED_EDGE ( 'NONE', *, *, #22, .F. ) ;
#46 = CIRCLE ( 'NONE', #210, 8.000000000000000000 ) ;
#47 = VERTEX_POINT ( 'NONE', #222 ) ;
#48 = DIRECTION ( 'NONE',  ( -1.000000000000000000, 0.000000000000000000, 0.000000000000000000 ) ) ;
#49 = DATE_AND_TIME ( #166, #169 ) ;
#50 = VERTEX_POINT ( 'NONE', #199 ) ;
#51 = CALENDAR_DATE ( 2023, 13, 2 ) ;
#52 =( LENGTH_UNIT ( ) NAMED_UNIT ( * ) SI_UNIT ( .MILLI., .METRE. ) );
#53 = ADVANCED_FACE ( 'NONE', ( #26 ), #25, .T. ) ;
#54 = DIRECTION ( 'NONE',  ( 1.000000000000000000, 0.000000000000000000, -0.000000000000000000 ) ) ;
#55 = EDGE_CURVE ( 'NONE', #175, #98, #205, .T. ) ;
#56 = DIRECTION ( 'NONE',  ( 1.000000000000000000, 0.000000000000000000, 0.000000000000000000 ) ) ;
#57 = LOCAL_TIME ( 11, 21, 9.000000000000000000, #118 ) ;
#58 = DIRECTION ( 'NONE',  ( 0.000000000000000000, 0.000000000000000000, 1.000000000000000000 ) ) ;
#59 = APPROVAL_ROLE ( '' ) ;
#60 = ORIENTED_EDGE ( 'NONE', *, *, #239, .T. ) ;
#61 = AXIS2_PLACEMENT_3D ( 'NONE', #129, #211, #112 ) ;
#62 = DIRECTION ( 'NONE',  ( 1.000000000000000000, 0.000000000000000000, -0.000000000000000000 ) ) ;
#63 = EDGE_LOOP ( 'NONE', ( #29, #102 ) ) ;
#64 = AXIS2_PLACEMENT_3D ( 'NONE', #68, #144, #48 ) ;
#65 = PRODUCT_DEFINITION ( 'NEZNÁMÝ', '', #186, #244 ) ;
#66 = DIRECTION ( 'NONE',  ( 0.000000000000000000, 0.000000000000000000, 1.000000000000000000 ) ) ;
#67 = COORDINATED_UNIVERSAL_TIME_OFFSET ( 1, 0, .AHEAD. ) ;
#68 = CARTESIAN_POINT ( 'NONE',  ( 0.000000000000000000, 0.000000000000000000, 500.0000000000000000 ) ) ;
#69 = CARTESIAN_POINT ( 'NONE',  ( 0.000000000000000000, 0.000000000000000000, 0.000000000000000000 ) ) ;
#70 = CIRCLE ( 'NONE', #116, 8.000000000000000000 ) ;
#71 = PERSON ( 'NEURÈENÝ', 'NEURÈENÝ', 'NEURÈENÝ', ('NEURÈENÝ'), ('NEURÈENÝ'), ('NEURÈENÝ') ) ;
#72 = CALENDAR_DATE ( 2023, 13, 2 ) ;
#73 = CC_DESIGN_PERSON_AND_ORGANIZATION_ASSIGNMENT ( #104, #7, ( #186 ) ) ;
#74 = AXIS2_PLACEMENT_3D ( 'NONE', #141, #201, #62 ) ;
#75 = CC_DESIGN_APPROVAL ( #96, ( #186 ) ) ;
#76 = CARTESIAN_POINT ( 'NONE',  ( 0.000000000000000000, 0.000000000000000000, 0.000000000000000000 ) ) ;
#77 = ADVANCED_FACE ( 'NONE', ( #5 ), #164, .T. ) ;
#78 = DIRECTION ( 'NONE',  ( 0.000000000000000000, 0.000000000000000000, 1.000000000000000000 ) ) ;
#79 = PERSON_AND_ORGANIZATION ( #71, #193 ) ;
#80 = EDGE_CURVE ( 'NONE', #98, #10, #132, .T. ) ;
#81 = ORIENTED_EDGE ( 'NONE', *, *, #237, .F. ) ;
#82 = CARTESIAN_POINT ( 'NONE',  ( 0.000000000000000000, 0.000000000000000000, 500.0000000000000000 ) ) ;
#83 = DIRECTION ( 'NONE',  ( 1.000000000000000000, 0.000000000000000000, -0.000000000000000000 ) ) ;
#84 = PLANE ( 'NONE',  #74 ) ;
#85 = DIRECTION ( 'NONE',  ( -0.000000000000000000, -0.000000000000000000, -1.000000000000000000 ) ) ;
#86 = COORDINATED_UNIVERSAL_TIME_OFFSET ( 1, 0, .AHEAD. ) ;
#87 = DIRECTION ( 'NONE',  ( 0.000000000000000000, 0.000000000000000000, 1.000000000000000000 ) ) ;
#88 = CARTESIAN_POINT ( 'NONE',  ( 0.000000000000000000, 0.000000000000000000, 5.000000000000000000 ) ) ;
#89 = DIRECTION ( 'NONE',  ( -0.000000000000000000, -0.000000000000000000, -1.000000000000000000 ) ) ;
#90 = PRODUCT_RELATED_PRODUCT_CATEGORY ( 'detail', '', ( #139 ) ) ;
#91 = AXIS2_PLACEMENT_3D ( 'NONE', #234, #246, #37 ) ;
#92 = ORIENTED_EDGE ( 'NONE', *, *, #227, .T. ) ;
#93 = DIRECTION ( 'NONE',  ( 1.000000000000000000, 0.000000000000000000, 0.000000000000000000 ) ) ;
#94 = VECTOR ( 'NONE', #89, 1000.000000000000000 ) ;
#95 = PRODUCT_DEFINITION_SHAPE ( 'NONE', 'NONE',  #65 ) ;
#96 = APPROVAL ( #163, 'NEURÈENÝ' ) ;
#97 = AXIS2_PLACEMENT_3D ( 'NONE', #38, #235, #157 ) ;
#98 = VERTEX_POINT ( 'NONE', #165 ) ;
#99 = ORIENTED_EDGE ( 'NONE', *, *, #33, .T. ) ;
#100 = DIRECTION ( 'NONE',  ( -1.000000000000000000, 0.000000000000000000, 0.000000000000000000 ) ) ;
#101 = APPROVAL_DATE_TIME ( #168, #36 ) ;
#102 = ORIENTED_EDGE ( 'NONE', *, *, #227, .F. ) ;
#103 = EDGE_CURVE ( 'NONE', #47, #50, #208, .T. ) ;
#104 = PERSON_AND_ORGANIZATION ( #71, #193 ) ;
#105 = ORIENTED_EDGE ( 'NONE', *, *, #103, .F. ) ;
#106 = CALENDAR_DATE ( 2023, 13, 2 ) ;
#107 = APPROVAL_DATE_TIME ( #217, #218 ) ;
#108 = EDGE_CURVE ( 'NONE', #50, #195, #191, .T. ) ;
#109 = AXIS2_PLACEMENT_3D ( 'NONE', #174, #229, #35 ) ;
#110 = LOCAL_TIME ( 11, 21, 9.000000000000000000, #67 ) ;
#111 = PERSON_AND_ORGANIZATION ( #71, #193 ) ;
#112 = DIRECTION ( 'NONE',  ( 1.000000000000000000, 0.000000000000000000, 0.000000000000000000 ) ) ;
#113 = CARTESIAN_POINT ( 'NONE',  ( 0.000000000000000000, 0.000000000000000000, 5.000000000000000000 ) ) ;
#114 = LOCAL_TIME ( 11, 21, 9.000000000000000000, #86 ) ;
#115 =( NAMED_UNIT ( * ) PLANE_ANGLE_UNIT ( ) SI_UNIT ( $, .RADIAN. ) );
#116 = AXIS2_PLACEMENT_3D ( 'NONE', #69, #66, #242 ) ;
#117 = APPLICATION_CONTEXT ( 'configuration controlled 3d designs of mechanical parts and assemblies' ) ;
#118 = COORDINATED_UNIVERSAL_TIME_OFFSET ( 1, 0, .AHEAD. ) ;
#119 = ORIENTED_EDGE ( 'NONE', *, *, #55, .T. ) ;
#120 = AXIS2_PLACEMENT_3D ( 'NONE', #113, #58, #176 ) ;
#121 = CARTESIAN_POINT ( 'NONE',  ( 0.000000000000000000, 0.000000000000000000, 0.000000000000000000 ) ) ;
#122 = CARTESIAN_POINT ( 'NONE',  ( 0.000000000000000000, 0.000000000000000000, 500.0000000000000000 ) ) ;
#123 = DIRECTION ( 'NONE',  ( 0.000000000000000000, 0.000000000000000000, 1.000000000000000000 ) ) ;
#124 = CC_DESIGN_PERSON_AND_ORGANIZATION_ASSIGNMENT ( #79, #178, ( #139 ) ) ;
#125 = APPROVAL_STATUS ( 'not_yet_approved' ) ;
#126 = ORIENTED_EDGE ( 'NONE', *, *, #108, .T. ) ;
#127 = CIRCLE ( 'NONE', #30, 8.000000000000000000 ) ;
#128 = COORDINATED_UNIVERSAL_TIME_OFFSET ( 1, 0, .AHEAD. ) ;
#129 = CARTESIAN_POINT ( 'NONE',  ( 0.000000000000000000, 0.000000000000000000, 0.000000000000000000 ) ) ;
#130 = APPLICATION_CONTEXT ( 'configuration controlled 3d designs of mechanical parts and assemblies' ) ;
#131 = FACE_BOUND ( 'NONE', #63, .T. ) ;
#132 = CIRCLE ( 'NONE', #233, 5.500000000000000000 ) ;
#133 = DIRECTION ( 'NONE',  ( 0.000000000000000000, 0.000000000000000000, 1.000000000000000000 ) ) ;
#134 = CIRCLE ( 'NONE', #91, 5.500000000000000000 ) ;
#135 = FACE_OUTER_BOUND ( 'NONE', #243, .T. ) ;
#136 = PLANE ( 'NONE',  #247 ) ;
#137 = CALENDAR_DATE ( 2023, 13, 2 ) ;
#138 = VECTOR ( 'NONE', #85, 1000.000000000000000 ) ;
#139 = PRODUCT ( '247d', '247d', '', ( #43 ) ) ;
#140 = ORIENTED_EDGE ( 'NONE', *, *, #170, .F. ) ;
#141 = CARTESIAN_POINT ( 'NONE',  ( 0.000000000000000000, 0.000000000000000000, 500.0000000000000000 ) ) ;
#142 = ORIENTED_EDGE ( 'NONE', *, *, #252, .T. ) ;
#143 = MANIFOLD_SOLID_BREP ( 'Pøidat vysunutím3', #15 ) ;
#144 = DIRECTION ( 'NONE',  ( -0.000000000000000000, -0.000000000000000000, -1.000000000000000000 ) ) ;
#145 = PERSON_AND_ORGANIZATION ( #71, #193 ) ;
#146 = ORIENTED_EDGE ( 'NONE', *, *, #55, .F. ) ;
#147 = CARTESIAN_POINT ( 'NONE',  ( 5.500000000000000000, 6.735557395310442023E-16, 500.0000000000000000 ) ) ;
#148 = CC_DESIGN_PERSON_AND_ORGANIZATION_ASSIGNMENT ( #230, #248, ( #65 ) ) ;
#149 = APPROVAL_PERSON_ORGANIZATION ( #204, #96, #31 ) ;
#150 = PERSON_AND_ORGANIZATION_ROLE ( 'design_supplier' ) ;
#151 = APPROVAL_PERSON_ORGANIZATION ( #255, #218, #59 ) ;
#152 = ADVANCED_FACE ( 'NONE', ( #153 ), #231, .T. ) ;
#153 = FACE_OUTER_BOUND ( 'NONE', #160, .T. ) ;
#154 = AXIS2_PLACEMENT_3D ( 'NONE', #232, #155, #253 ) ;
#155 = DIRECTION ( 'NONE',  ( -0.000000000000000000, -0.000000000000000000, -1.000000000000000000 ) ) ;
#156 = VECTOR ( 'NONE', #23, 1000.000000000000000 ) ;
#157 = DIRECTION ( 'NONE',  ( 1.000000000000000000, 0.000000000000000000, 0.000000000000000000 ) ) ;
#158 = APPLICATION_PROTOCOL_DEFINITION ( 'international standard', 'config_control_design', 1994, #130 ) ;
#159 = AXIS2_PLACEMENT_3D ( 'NONE', #82, #87, #161 ) ;
#160 = EDGE_LOOP ( 'NONE', ( #223, #44, #126, #162 ) ) ;
#161 = DIRECTION ( 'NONE',  ( 1.000000000000000000, 0.000000000000000000, 0.000000000000000000 ) ) ;
#162 = ORIENTED_EDGE ( 'NONE', *, *, #22, .T. ) ;
#163 = APPROVAL_STATUS ( 'not_yet_approved' ) ;
#164 = CYLINDRICAL_SURFACE ( 'NONE', #64, 5.500000000000000000 ) ;
#165 = CARTESIAN_POINT ( 'NONE',  ( -5.500000000000000000, 0.000000000000000000, 5.000000000000000000 ) ) ;
#166 = CALENDAR_DATE ( 2023, 13, 2 ) ;
#167 = FACE_OUTER_BOUND ( 'NONE', #219, .T. ) ;
#168 = DATE_AND_TIME ( #106, #114 ) ;
#169 = LOCAL_TIME ( 11, 21, 9.000000000000000000, #128 ) ;
#170 = EDGE_CURVE ( 'NONE', #175, #181, #12, .T. ) ;
#171 = CARTESIAN_POINT ( 'NONE',  ( 5.500000000000000000, 6.735557395310442023E-16, 500.0000000000000000 ) ) ;
#172 = VECTOR ( 'NONE', #173, 1000.000000000000000 ) ;
#173 = DIRECTION ( 'NONE',  ( -0.000000000000000000, -0.000000000000000000, -1.000000000000000000 ) ) ;
#174 = CARTESIAN_POINT ( 'NONE',  ( 0.000000000000000000, 0.000000000000000000, 5.000000000000000000 ) ) ;
#175 = VERTEX_POINT ( 'NONE', #14 ) ;
#176 = DIRECTION ( 'NONE',  ( 1.000000000000000000, 0.000000000000000000, 0.000000000000000000 ) ) ;
#177 = CC_DESIGN_APPROVAL ( #218, ( #65 ) ) ;
#178 = PERSON_AND_ORGANIZATION_ROLE ( 'design_owner' ) ;
#179 = ORIENTED_EDGE ( 'NONE', *, *, #252, .F. ) ;
#180 = CC_DESIGN_PERSON_AND_ORGANIZATION_ASSIGNMENT ( #145, #150, ( #186 ) ) ;
#181 = VERTEX_POINT ( 'NONE', #147 ) ;
#182 = ORIENTED_EDGE ( 'NONE', *, *, #170, .T. ) ;
#183 = CARTESIAN_POINT ( 'NONE',  ( -5.500000000000000000, 0.000000000000000000, 500.0000000000000000 ) ) ;
#184 = DATE_AND_TIME ( #51, #18 ) ;
#185 = FACE_OUTER_BOUND ( 'NONE', #20, .T. ) ;
#186 = PRODUCT_DEFINITION_FORMATION_WITH_SPECIFIED_SOURCE ( 'LIBOVOLNÝ', '', #139, .NOT_KNOWN. ) ;
#187 = COORDINATED_UNIVERSAL_TIME_OFFSET ( 1, 0, .AHEAD. ) ;
#188 = EDGE_LOOP ( 'NONE', ( #197, #215, #92, #146 ) ) ;
#189 = SECURITY_CLASSIFICATION_LEVEL ( 'unclassified' ) ;
#190 = DATE_AND_TIME ( #72, #110 ) ;
#191 = LINE ( 'NONE', #21, #94 ) ;
#192 = CARTESIAN_POINT ( 'NONE',  ( -8.000000000000000000, 0.000000000000000000, 0.000000000000000000 ) ) ;
#193 = ORGANIZATION ( 'NEURÈENÝ', 'NEURÈENÝ', '' ) ;
#194 = ADVANCED_FACE ( 'NONE', ( #131, #135 ), #136, .T. ) ;
#195 = VERTEX_POINT ( 'NONE', #192 ) ;
#196 = FACE_OUTER_BOUND ( 'NONE', #221, .T. ) ;
#197 = ORIENTED_EDGE ( 'NONE', *, *, #33, .F. ) ;
#198 = ADVANCED_FACE ( 'NONE', ( #196 ), #251, .T. ) ;
#199 = CARTESIAN_POINT ( 'NONE',  ( -8.000000000000000000, 0.000000000000000000, 5.000000000000000000 ) ) ;
#200 = CC_DESIGN_PERSON_AND_ORGANIZATION_ASSIGNMENT ( #207, #9, ( #220 ) ) ;
#201 = DIRECTION ( 'NONE',  ( 0.000000000000000000, 0.000000000000000000, 1.000000000000000000 ) ) ;
#202 = DIRECTION ( 'NONE',  ( -0.000000000000000000, -0.000000000000000000, -1.000000000000000000 ) ) ;
#203 = CARTESIAN_POINT ( 'NONE',  ( 0.000000000000000000, 0.000000000000000000, 5.000000000000000000 ) ) ;
#204 = PERSON_AND_ORGANIZATION ( #71, #193 ) ;
#205 = LINE ( 'NONE', #183, #138 ) ;
#206 = CC_DESIGN_SECURITY_CLASSIFICATION ( #220, ( #186 ) ) ;
#207 = PERSON_AND_ORGANIZATION ( #71, #193 ) ;
#208 = CIRCLE ( 'NONE', #120, 8.000000000000000000 ) ;
#209 = DATE_TIME_ROLE ( 'classification_date' ) ;
#210 = AXIS2_PLACEMENT_3D ( 'NONE', #76, #133, #93 ) ;
#211 = DIRECTION ( 'NONE',  ( 0.000000000000000000, 0.000000000000000000, 1.000000000000000000 ) ) ;
#212 = CARTESIAN_POINT ( 'NONE',  ( 0.000000000000000000, 0.000000000000000000, 5.000000000000000000 ) ) ;
#213 = AXIS2_PLACEMENT_3D ( 'NONE', #121, #241, #83 ) ;
#214 = ADVANCED_BREP_SHAPE_REPRESENTATION ( '247d', ( #143, #61 ), #238 ) ;
#215 = ORIENTED_EDGE ( 'NONE', *, *, #237, .T. ) ;
#216 = APPLICATION_PROTOCOL_DEFINITION ( 'international standard', 'config_control_design', 1994, #117 ) ;
#217 = DATE_AND_TIME ( #137, #57 ) ;
#218 = APPROVAL ( #236, 'NEURÈENÝ' ) ;
#219 = EDGE_LOOP ( 'NONE', ( #45, #179 ) ) ;
#220 = SECURITY_CLASSIFICATION ( '', '', #189 ) ;
#221 = EDGE_LOOP ( 'NONE', ( #105, #2, #142, #226 ) ) ;
#222 = CARTESIAN_POINT ( 'NONE',  ( 8.000000000000000000, 9.797174393178825657E-16, 5.000000000000000000 ) ) ;
#223 = ORIENTED_EDGE ( 'NONE', *, *, #249, .F. ) ;
#224 = ORIENTED_EDGE ( 'NONE', *, *, #80, .T. ) ;
#225 = SHAPE_DEFINITION_REPRESENTATION ( #95, #214 ) ;
#226 = ORIENTED_EDGE ( 'NONE', *, *, #108, .F. ) ;
#227 = EDGE_CURVE ( 'NONE', #10, #98, #134, .T. ) ;
#228 = APPROVAL_ROLE ( '' ) ;
#229 = DIRECTION ( 'NONE',  ( -0.000000000000000000, -0.000000000000000000, -1.000000000000000000 ) ) ;
#230 = PERSON_AND_ORGANIZATION ( #71, #193 ) ;
#231 = CYLINDRICAL_SURFACE ( 'NONE', #154, 8.000000000000000000 ) ;
#232 = CARTESIAN_POINT ( 'NONE',  ( 0.000000000000000000, 0.000000000000000000, 5.000000000000000000 ) ) ;
#233 = AXIS2_PLACEMENT_3D ( 'NONE', #203, #123, #8 ) ;
#234 = CARTESIAN_POINT ( 'NONE',  ( 0.000000000000000000, 0.000000000000000000, 5.000000000000000000 ) ) ;
#235 = DIRECTION ( 'NONE',  ( 0.000000000000000000, 0.000000000000000000, 1.000000000000000000 ) ) ;
#236 = APPROVAL_STATUS ( 'not_yet_approved' ) ;
#237 = EDGE_CURVE ( 'NONE', #181, #10, #42, .T. ) ;
#238 =( GEOMETRIC_REPRESENTATION_CONTEXT ( 3 ) GLOBAL_UNCERTAINTY_ASSIGNED_CONTEXT ( ( #11 ) ) GLOBAL_UNIT_ASSIGNED_CONTEXT ( ( #52, #115, #19 ) ) REPRESENTATION_CONTEXT ( 'NONE', 'WORKASPACE' ) );
#239 = EDGE_CURVE ( 'NONE', #50, #47, #127, .T. ) ;
#240 = PLANE ( 'NONE',  #213 ) ;
#241 = DIRECTION ( 'NONE',  ( 0.000000000000000000, 0.000000000000000000, 1.000000000000000000 ) ) ;
#242 = DIRECTION ( 'NONE',  ( 1.000000000000000000, 0.000000000000000000, 0.000000000000000000 ) ) ;
#243 = EDGE_LOOP ( 'NONE', ( #60, #4 ) ) ;
#244 = DESIGN_CONTEXT ( 'detailed design', #130, 'design' ) ;
#245 = CIRCLE ( 'NONE', #159, 5.500000000000000000 ) ;
#246 = DIRECTION ( 'NONE',  ( 0.000000000000000000, 0.000000000000000000, 1.000000000000000000 ) ) ;
#247 = AXIS2_PLACEMENT_3D ( 'NONE', #88, #40, #54 ) ;
#248 = PERSON_AND_ORGANIZATION_ROLE ( 'creator' ) ;
#249 = EDGE_CURVE ( 'NONE', #47, #1, #17, .T. ) ;
#250 = CARTESIAN_POINT ( 'NONE',  ( 8.000000000000000000, 9.797174393178825657E-16, 5.000000000000000000 ) ) ;
#251 = CYLINDRICAL_SURFACE ( 'NONE', #109, 8.000000000000000000 ) ;
#252 = EDGE_CURVE ( 'NONE', #1, #195, #46, .T. ) ;
#253 = DIRECTION ( 'NONE',  ( -1.000000000000000000, 0.000000000000000000, 0.000000000000000000 ) ) ;
#254 = APPROVAL_PERSON_ORGANIZATION ( #111, #36, #228 ) ;
#255 = PERSON_AND_ORGANIZATION ( #71, #193 ) ;
ENDSEC;
END-ISO-10303-21;
