ISO-10303-21;
HEADER;
FILE_DESCRIPTION (( 'STEP AP203' ),
    '1' );
FILE_NAME ('42ce.STEP',
    '2023-02-13T09:19:54',
    ( '' ),
    ( '' ),
    'SwSTEP 2.0',
    'SolidWorks 2019',
    '' );
FILE_SCHEMA (( 'CONFIG_CONTROL_DESIGN' ));
ENDSEC;

DATA;
#1 = APPROVAL_PERSON_ORGANIZATION ( #232, #220, #150 ) ;
#2 = EDGE_CURVE ( 'NONE', #38, #99, #151, .T. ) ;
#3 = LINE ( 'NONE', #30, #181 ) ;
#4 = CARTESIAN_POINT ( 'NONE',  ( 0.000000000000000000, 0.000000000000000000, 7.000000000000000000 ) ) ;
#5 =( LENGTH_UNIT ( ) NAMED_UNIT ( * ) SI_UNIT ( .MILLI., .METRE. ) );
#6 = AXIS2_PLACEMENT_3D ( 'NONE', #113, #50, #147 ) ;
#7 = CALENDAR_DATE ( 2023, 13, 2 ) ;
#8 = APPLICATION_PROTOCOL_DEFINITION ( 'international standard', 'config_control_design', 1994, #149 ) ;
#9 = PERSON_AND_ORGANIZATION ( #250, #127 ) ;
#10 = LOCAL_TIME ( 10, 19, 54.00000000000000000, #187 ) ;
#11 = APPROVAL_DATE_TIME ( #190, #220 ) ;
#12 = ORIENTED_EDGE ( 'NONE', *, *, #31, .T. ) ;
#13 = CARTESIAN_POINT ( 'NONE',  ( -12.00000000000000178, 0.000000000000000000, 0.000000000000000000 ) ) ;
#14 = CLOSED_SHELL ( 'NONE', ( #227, #108, #171, #222, #230, #103, #55 ) ) ;
#15 = EDGE_CURVE ( 'NONE', #105, #102, #216, .T. ) ;
#16 = CC_DESIGN_APPROVAL ( #220, ( #66 ) ) ;
#17 = DIRECTION ( 'NONE',  ( 0.000000000000000000, 0.000000000000000000, 1.000000000000000000 ) ) ;
#18 = ORIENTED_EDGE ( 'NONE', *, *, #154, .T. ) ;
#19 = ORIENTED_EDGE ( 'NONE', *, *, #93, .F. ) ;
#20 = AXIS2_PLACEMENT_3D ( 'NONE', #72, #253, #89 ) ;
#21 = CC_DESIGN_PERSON_AND_ORGANIZATION_ASSIGNMENT ( #9, #133, ( #204 ) ) ;
#22 = AXIS2_PLACEMENT_3D ( 'NONE', #179, #254, #240 ) ;
#23 = DIRECTION ( 'NONE',  ( -0.000000000000000000, -0.000000000000000000, -1.000000000000000000 ) ) ;
#24 = DIRECTION ( 'NONE',  ( 0.000000000000000000, 0.000000000000000000, 1.000000000000000000 ) ) ;
#25 = CARTESIAN_POINT ( 'NONE',  ( 9.000000000000000000, 1.102182119232617517E-15, 7.000000000000000000 ) ) ;
#26 = CC_DESIGN_PERSON_AND_ORGANIZATION_ASSIGNMENT ( #114, #169, ( #106 ) ) ;
#27 = AXIS2_PLACEMENT_3D ( 'NONE', #241, #224, #164 ) ;
#28 = FACE_BOUND ( 'NONE', #252, .T. ) ;
#29 = AXIS2_PLACEMENT_3D ( 'NONE', #184, #221, #109 ) ;
#30 = CARTESIAN_POINT ( 'NONE',  ( 12.00000000000000178, 1.469576158976824144E-15, 7.000000000000000000 ) ) ;
#31 = EDGE_CURVE ( 'NONE', #38, #102, #65, .T. ) ;
#32 = SECURITY_CLASSIFICATION_LEVEL ( 'unclassified' ) ;
#33 = DIRECTION ( 'NONE',  ( 1.000000000000000000, 0.000000000000000000, 0.000000000000000000 ) ) ;
#34 = APPROVAL_STATUS ( 'not_yet_approved' ) ;
#35 = CARTESIAN_POINT ( 'NONE',  ( 12.00000000000000178, 1.469576158976824144E-15, 7.000000000000000000 ) ) ;
#36 = AXIS2_PLACEMENT_3D ( 'NONE', #107, #128, #129 ) ;
#37 = ORIENTED_EDGE ( 'NONE', *, *, #2, .T. ) ;
#38 = VERTEX_POINT ( 'NONE', #192 ) ;
#39 = VERTEX_POINT ( 'NONE', #13 ) ;
#40 = AXIS2_PLACEMENT_3D ( 'NONE', #104, #139, #177 ) ;
#41 = ORIENTED_EDGE ( 'NONE', *, *, #138, .T. ) ;
#42 = APPROVAL ( #34, 'NEURÈENÝ' ) ;
#43 = CARTESIAN_POINT ( 'NONE',  ( 0.000000000000000000, 0.000000000000000000, 100.0000000000000000 ) ) ;
#44 =( GEOMETRIC_REPRESENTATION_CONTEXT ( 3 ) GLOBAL_UNCERTAINTY_ASSIGNED_CONTEXT ( ( #80 ) ) GLOBAL_UNIT_ASSIGNED_CONTEXT ( ( #5, #247, #135 ) ) REPRESENTATION_CONTEXT ( 'NONE', 'WORKASPACE' ) );
#45 = DIRECTION ( 'NONE',  ( -0.000000000000000000, -0.000000000000000000, -1.000000000000000000 ) ) ;
#46 = DIRECTION ( 'NONE',  ( 1.000000000000000000, 0.000000000000000000, 0.000000000000000000 ) ) ;
#47 = DIRECTION ( 'NONE',  ( -0.000000000000000000, -0.000000000000000000, -1.000000000000000000 ) ) ;
#48 = APPLICATION_CONTEXT ( 'configuration controlled 3d designs of mechanical parts and assemblies' ) ;
#49 = AXIS2_PLACEMENT_3D ( 'NONE', #205, #146, #226 ) ;
#50 = DIRECTION ( 'NONE',  ( -0.000000000000000000, -0.000000000000000000, -1.000000000000000000 ) ) ;
#51 = PERSON_AND_ORGANIZATION_ROLE ( 'creator' ) ;
#52 = APPROVAL_STATUS ( 'not_yet_approved' ) ;
#53 = AXIS2_PLACEMENT_3D ( 'NONE', #43, #225, #74 ) ;
#54 = CARTESIAN_POINT ( 'NONE',  ( 0.000000000000000000, 0.000000000000000000, 0.000000000000000000 ) ) ;
#55 = ADVANCED_FACE ( 'NONE', ( #174 ), #176, .T. ) ;
#56 = EDGE_LOOP ( 'NONE', ( #84, #62, #18, #19 ) ) ;
#57 = AXIS2_PLACEMENT_3D ( 'NONE', #54, #246, #33 ) ;
#58 = CC_DESIGN_APPROVAL ( #206, ( #106 ) ) ;
#59 = ORIENTED_EDGE ( 'NONE', *, *, #180, .T. ) ;
#60 = ORIENTED_EDGE ( 'NONE', *, *, #2, .F. ) ;
#61 = CALENDAR_DATE ( 2023, 13, 2 ) ;
#62 = ORIENTED_EDGE ( 'NONE', *, *, #122, .T. ) ;
#63 = AXIS2_PLACEMENT_3D ( 'NONE', #144, #167, #242 ) ;
#64 = LOCAL_TIME ( 10, 19, 54.00000000000000000, #134 ) ;
#65 = LINE ( 'NONE', #142, #196 ) ;
#66 = PRODUCT_DEFINITION ( 'NEZNÁMÝ', '', #204, #124 ) ;
#67 = DIRECTION ( 'NONE',  ( 1.000000000000000000, 0.000000000000000000, 0.000000000000000000 ) ) ;
#68 = CARTESIAN_POINT ( 'NONE',  ( 9.000000000000000000, 1.102182119232617517E-15, 100.0000000000000000 ) ) ;
#69 = CIRCLE ( 'NONE', #159, 9.000000000000000000 ) ;
#70 = EDGE_CURVE ( 'NONE', #99, #38, #69, .T. ) ;
#71 = CC_DESIGN_APPROVAL ( #42, ( #204 ) ) ;
#72 = CARTESIAN_POINT ( 'NONE',  ( 0.000000000000000000, 0.000000000000000000, 100.0000000000000000 ) ) ;
#73 = FACE_OUTER_BOUND ( 'NONE', #237, .T. ) ;
#74 = DIRECTION ( 'NONE',  ( -1.000000000000000000, 0.000000000000000000, 0.000000000000000000 ) ) ;
#75 = VECTOR ( 'NONE', #47, 1000.000000000000000 ) ;
#76 = APPROVAL_ROLE ( '' ) ;
#77 = APPROVAL_PERSON_ORGANIZATION ( #141, #206, #101 ) ;
#78 = EDGE_CURVE ( 'NONE', #249, #215, #186, .T. ) ;
#79 = CALENDAR_DATE ( 2023, 13, 2 ) ;
#80 = UNCERTAINTY_MEASURE_WITH_UNIT (LENGTH_MEASURE( 1.000000000000000082E-05 ), #5, 'distance_accuracy_value', 'NONE');
#81 = ORIENTED_EDGE ( 'NONE', *, *, #93, .T. ) ;
#82 = CIRCLE ( 'NONE', #63, 12.00000000000000178 ) ;
#83 = APPROVAL_DATE_TIME ( #217, #206 ) ;
#84 = ORIENTED_EDGE ( 'NONE', *, *, #78, .F. ) ;
#85 = AXIS2_PLACEMENT_3D ( 'NONE', #223, #24, #110 ) ;
#86 = MANIFOLD_SOLID_BREP ( 'Pøidat vysunutím3', #14 ) ;
#87 = ORIENTED_EDGE ( 'NONE', *, *, #78, .T. ) ;
#88 = CARTESIAN_POINT ( 'NONE',  ( -12.00000000000000178, 0.000000000000000000, 7.000000000000000000 ) ) ;
#89 = DIRECTION ( 'NONE',  ( 1.000000000000000000, 0.000000000000000000, -0.000000000000000000 ) ) ;
#90 = FACE_OUTER_BOUND ( 'NONE', #125, .T. ) ;
#91 = CYLINDRICAL_SURFACE ( 'NONE', #27, 12.00000000000000178 ) ;
#92 = DIRECTION ( 'NONE',  ( 0.000000000000000000, 0.000000000000000000, 1.000000000000000000 ) ) ;
#93 = EDGE_CURVE ( 'NONE', #215, #39, #145, .T. ) ;
#94 = AXIS2_PLACEMENT_3D ( 'NONE', #4, #92, #67 ) ;
#95 = APPROVAL_DATE_TIME ( #117, #42 ) ;
#96 = DATE_AND_TIME ( #7, #10 ) ;
#97 = PRODUCT_RELATED_PRODUCT_CATEGORY ( 'detail', '', ( #244 ) ) ;
#98 = DIRECTION ( 'NONE',  ( 1.000000000000000000, 0.000000000000000000, -0.000000000000000000 ) ) ;
#99 = VERTEX_POINT ( 'NONE', #68 ) ;
#100 = EDGE_LOOP ( 'NONE', ( #37, #218 ) ) ;
#101 = APPROVAL_ROLE ( '' ) ;
#102 = VERTEX_POINT ( 'NONE', #201 ) ;
#103 = ADVANCED_FACE ( 'NONE', ( #73 ), #130, .T. ) ;
#104 = CARTESIAN_POINT ( 'NONE',  ( 0.000000000000000000, 0.000000000000000000, 100.0000000000000000 ) ) ;
#105 = VERTEX_POINT ( 'NONE', #25 ) ;
#106 = SECURITY_CLASSIFICATION ( '', '', #32 ) ;
#107 = CARTESIAN_POINT ( 'NONE',  ( 0.000000000000000000, 0.000000000000000000, 7.000000000000000000 ) ) ;
#108 = ADVANCED_FACE ( 'NONE', ( #126 ), #91, .T. ) ;
#109 = DIRECTION ( 'NONE',  ( 1.000000000000000000, 0.000000000000000000, -0.000000000000000000 ) ) ;
#110 = DIRECTION ( 'NONE',  ( 1.000000000000000000, 0.000000000000000000, 0.000000000000000000 ) ) ;
#111 = AXIS2_PLACEMENT_3D ( 'NONE', #193, #17, #251 ) ;
#112 = FACE_OUTER_BOUND ( 'NONE', #136, .T. ) ;
#113 = CARTESIAN_POINT ( 'NONE',  ( 0.000000000000000000, 0.000000000000000000, 7.000000000000000000 ) ) ;
#114 = PERSON_AND_ORGANIZATION ( #250, #127 ) ;
#115 = CALENDAR_DATE ( 2023, 13, 2 ) ;
#116 = DATE_AND_TIME ( #79, #182 ) ;
#117 = DATE_AND_TIME ( #115, #213 ) ;
#118 = CALENDAR_DATE ( 2023, 13, 2 ) ;
#119 = DIRECTION ( 'NONE',  ( -0.000000000000000000, -0.000000000000000000, -1.000000000000000000 ) ) ;
#120 = ORIENTED_EDGE ( 'NONE', *, *, #163, .F. ) ;
#121 = ORIENTED_EDGE ( 'NONE', *, *, #70, .F. ) ;
#122 = EDGE_CURVE ( 'NONE', #249, #236, #3, .T. ) ;
#123 = EDGE_LOOP ( 'NONE', ( #121, #155, #233, #194 ) ) ;
#124 = DESIGN_CONTEXT ( 'detailed design', #149, 'design' ) ;
#125 = EDGE_LOOP ( 'NONE', ( #173, #214 ) ) ;
#126 = FACE_OUTER_BOUND ( 'NONE', #56, .T. ) ;
#127 = ORGANIZATION ( 'NEURÈENÝ', 'NEURÈENÝ', '' ) ;
#128 = DIRECTION ( 'NONE',  ( 0.000000000000000000, 0.000000000000000000, 1.000000000000000000 ) ) ;
#129 = DIRECTION ( 'NONE',  ( 1.000000000000000000, 0.000000000000000000, 0.000000000000000000 ) ) ;
#130 = CYLINDRICAL_SURFACE ( 'NONE', #53, 9.000000000000000000 ) ;
#131 = EDGE_CURVE ( 'NONE', #39, #236, #82, .T. ) ;
#132 = DIRECTION ( 'NONE',  ( 0.000000000000000000, 0.000000000000000000, 1.000000000000000000 ) ) ;
#133 = PERSON_AND_ORGANIZATION_ROLE ( 'design_supplier' ) ;
#134 = COORDINATED_UNIVERSAL_TIME_OFFSET ( 1, 0, .AHEAD. ) ;
#135 =( NAMED_UNIT ( * ) SI_UNIT ( $, .STERADIAN. ) SOLID_ANGLE_UNIT ( ) );
#136 = EDGE_LOOP ( 'NONE', ( #41, #87 ) ) ;
#137 = CC_DESIGN_SECURITY_CLASSIFICATION ( #106, ( #204 ) ) ;
#138 = EDGE_CURVE ( 'NONE', #215, #249, #203, .T. ) ;
#139 = DIRECTION ( 'NONE',  ( 0.000000000000000000, 0.000000000000000000, 1.000000000000000000 ) ) ;
#140 = ORIENTED_EDGE ( 'NONE', *, *, #131, .T. ) ;
#141 = PERSON_AND_ORGANIZATION ( #250, #127 ) ;
#142 = CARTESIAN_POINT ( 'NONE',  ( -9.000000000000000000, 0.000000000000000000, 100.0000000000000000 ) ) ;
#143 = CARTESIAN_POINT ( 'NONE',  ( 9.000000000000000000, 1.102182119232617517E-15, 100.0000000000000000 ) ) ;
#144 = CARTESIAN_POINT ( 'NONE',  ( 0.000000000000000000, 0.000000000000000000, 0.000000000000000000 ) ) ;
#145 = LINE ( 'NONE', #88, #209 ) ;
#146 = DIRECTION ( 'NONE',  ( 0.000000000000000000, 0.000000000000000000, 1.000000000000000000 ) ) ;
#147 = DIRECTION ( 'NONE',  ( -1.000000000000000000, 0.000000000000000000, 0.000000000000000000 ) ) ;
#148 = MECHANICAL_CONTEXT ( 'NONE', #48, 'mechanical' ) ;
#149 = APPLICATION_CONTEXT ( 'configuration controlled 3d designs of mechanical parts and assemblies' ) ;
#150 = APPROVAL_ROLE ( '' ) ;
#151 = CIRCLE ( 'NONE', #40, 9.000000000000000000 ) ;
#152 = DIRECTION ( 'NONE',  ( 0.000000000000000000, 0.000000000000000000, 1.000000000000000000 ) ) ;
#153 = APPLICATION_PROTOCOL_DEFINITION ( 'international standard', 'config_control_design', 1994, #48 ) ;
#154 = EDGE_CURVE ( 'NONE', #236, #39, #191, .T. ) ;
#155 = ORIENTED_EDGE ( 'NONE', *, *, #163, .T. ) ;
#156 = APPROVAL_PERSON_ORGANIZATION ( #207, #42, #76 ) ;
#157 = EDGE_LOOP ( 'NONE', ( #195, #234, #81, #140 ) ) ;
#158 = DATE_TIME_ROLE ( 'classification_date' ) ;
#159 = AXIS2_PLACEMENT_3D ( 'NONE', #183, #132, #46 ) ;
#160 = ORIENTED_EDGE ( 'NONE', *, *, #15, .F. ) ;
#161 = ADVANCED_BREP_SHAPE_REPRESENTATION ( '42ce', ( #86, #57 ), #44 ) ;
#162 = ORIENTED_EDGE ( 'NONE', *, *, #180, .F. ) ;
#163 = EDGE_CURVE ( 'NONE', #99, #105, #202, .T. ) ;
#164 = DIRECTION ( 'NONE',  ( -1.000000000000000000, 0.000000000000000000, 0.000000000000000000 ) ) ;
#165 = CYLINDRICAL_SURFACE ( 'NONE', #6, 12.00000000000000178 ) ;
#166 = PLANE ( 'NONE',  #172 ) ;
#167 = DIRECTION ( 'NONE',  ( 0.000000000000000000, 0.000000000000000000, 1.000000000000000000 ) ) ;
#168 = COORDINATED_UNIVERSAL_TIME_OFFSET ( 1, 0, .AHEAD. ) ;
#169 = PERSON_AND_ORGANIZATION_ROLE ( 'classification_officer' ) ;
#170 = PERSON_AND_ORGANIZATION ( #250, #127 ) ;
#171 = ADVANCED_FACE ( 'NONE', ( #197 ), #165, .T. ) ;
#172 = AXIS2_PLACEMENT_3D ( 'NONE', #188, #152, #98 ) ;
#173 = ORIENTED_EDGE ( 'NONE', *, *, #131, .F. ) ;
#174 = FACE_OUTER_BOUND ( 'NONE', #100, .T. ) ;
#175 = SHAPE_DEFINITION_REPRESENTATION ( #239, #161 ) ;
#176 = PLANE ( 'NONE',  #20 ) ;
#177 = DIRECTION ( 'NONE',  ( 1.000000000000000000, 0.000000000000000000, 0.000000000000000000 ) ) ;
#178 = CYLINDRICAL_SURFACE ( 'NONE', #22, 9.000000000000000000 ) ;
#179 = CARTESIAN_POINT ( 'NONE',  ( 0.000000000000000000, 0.000000000000000000, 100.0000000000000000 ) ) ;
#180 = EDGE_CURVE ( 'NONE', #102, #105, #245, .T. ) ;
#181 = VECTOR ( 'NONE', #23, 1000.000000000000000 ) ;
#182 = LOCAL_TIME ( 10, 19, 54.00000000000000000, #168 ) ;
#183 = CARTESIAN_POINT ( 'NONE',  ( 0.000000000000000000, 0.000000000000000000, 100.0000000000000000 ) ) ;
#184 = CARTESIAN_POINT ( 'NONE',  ( 0.000000000000000000, 0.000000000000000000, 7.000000000000000000 ) ) ;
#185 = PERSON_AND_ORGANIZATION ( #250, #127 ) ;
#186 = CIRCLE ( 'NONE', #94, 12.00000000000000178 ) ;
#187 = COORDINATED_UNIVERSAL_TIME_OFFSET ( 1, 0, .AHEAD. ) ;
#188 = CARTESIAN_POINT ( 'NONE',  ( 0.000000000000000000, 0.000000000000000000, 0.000000000000000000 ) ) ;
#189 = CC_DESIGN_DATE_AND_TIME_ASSIGNMENT ( #96, #158, ( #106 ) ) ;
#190 = DATE_AND_TIME ( #118, #64 ) ;
#191 = CIRCLE ( 'NONE', #85, 12.00000000000000178 ) ;
#192 = CARTESIAN_POINT ( 'NONE',  ( -9.000000000000000000, 0.000000000000000000, 100.0000000000000000 ) ) ;
#193 = CARTESIAN_POINT ( 'NONE',  ( 0.000000000000000000, 0.000000000000000000, 7.000000000000000000 ) ) ;
#194 = ORIENTED_EDGE ( 'NONE', *, *, #31, .F. ) ;
#195 = ORIENTED_EDGE ( 'NONE', *, *, #122, .F. ) ;
#196 = VECTOR ( 'NONE', #119, 1000.000000000000000 ) ;
#197 = FACE_OUTER_BOUND ( 'NONE', #157, .T. ) ;
#198 = CARTESIAN_POINT ( 'NONE',  ( -12.00000000000000178, 0.000000000000000000, 7.000000000000000000 ) ) ;
#199 = CC_DESIGN_PERSON_AND_ORGANIZATION_ASSIGNMENT ( #208, #229, ( #244 ) ) ;
#200 = APPROVAL_STATUS ( 'not_yet_approved' ) ;
#201 = CARTESIAN_POINT ( 'NONE',  ( -9.000000000000000000, 0.000000000000000000, 7.000000000000000000 ) ) ;
#202 = LINE ( 'NONE', #143, #75 ) ;
#203 = CIRCLE ( 'NONE', #49, 12.00000000000000178 ) ;
#204 = PRODUCT_DEFINITION_FORMATION_WITH_SPECIFIED_SOURCE ( 'LIBOVOLNÝ', '', #244, .NOT_KNOWN. ) ;
#205 = CARTESIAN_POINT ( 'NONE',  ( 0.000000000000000000, 0.000000000000000000, 7.000000000000000000 ) ) ;
#206 = APPROVAL ( #200, 'NEURÈENÝ' ) ;
#207 = PERSON_AND_ORGANIZATION ( #250, #127 ) ;
#208 = PERSON_AND_ORGANIZATION ( #250, #127 ) ;
#209 = VECTOR ( 'NONE', #45, 1000.000000000000000 ) ;
#210 = CC_DESIGN_DATE_AND_TIME_ASSIGNMENT ( #116, #211, ( #66 ) ) ;
#211 = DATE_TIME_ROLE ( 'creation_date' ) ;
#212 = COORDINATED_UNIVERSAL_TIME_OFFSET ( 1, 0, .AHEAD. ) ;
#213 = LOCAL_TIME ( 10, 19, 54.00000000000000000, #228 ) ;
#214 = ORIENTED_EDGE ( 'NONE', *, *, #154, .F. ) ;
#215 = VERTEX_POINT ( 'NONE', #198 ) ;
#216 = CIRCLE ( 'NONE', #111, 9.000000000000000000 ) ;
#217 = DATE_AND_TIME ( #61, #219 ) ;
#218 = ORIENTED_EDGE ( 'NONE', *, *, #70, .T. ) ;
#219 = LOCAL_TIME ( 10, 19, 54.00000000000000000, #212 ) ;
#220 = APPROVAL ( #52, 'NEURÈENÝ' ) ;
#221 = DIRECTION ( 'NONE',  ( 0.000000000000000000, 0.000000000000000000, 1.000000000000000000 ) ) ;
#222 = ADVANCED_FACE ( 'NONE', ( #28, #112 ), #255, .T. ) ;
#223 = CARTESIAN_POINT ( 'NONE',  ( 0.000000000000000000, 0.000000000000000000, 0.000000000000000000 ) ) ;
#224 = DIRECTION ( 'NONE',  ( -0.000000000000000000, -0.000000000000000000, -1.000000000000000000 ) ) ;
#225 = DIRECTION ( 'NONE',  ( -0.000000000000000000, -0.000000000000000000, -1.000000000000000000 ) ) ;
#226 = DIRECTION ( 'NONE',  ( 1.000000000000000000, 0.000000000000000000, 0.000000000000000000 ) ) ;
#227 = ADVANCED_FACE ( 'NONE', ( #238 ), #178, .T. ) ;
#228 = COORDINATED_UNIVERSAL_TIME_OFFSET ( 1, 0, .AHEAD. ) ;
#229 = PERSON_AND_ORGANIZATION_ROLE ( 'design_owner' ) ;
#230 = ADVANCED_FACE ( 'NONE', ( #90 ), #166, .F. ) ;
#231 = CARTESIAN_POINT ( 'NONE',  ( 12.00000000000000178, 1.469576158976824144E-15, 0.000000000000000000 ) ) ;
#232 = PERSON_AND_ORGANIZATION ( #250, #127 ) ;
#233 = ORIENTED_EDGE ( 'NONE', *, *, #15, .T. ) ;
#234 = ORIENTED_EDGE ( 'NONE', *, *, #138, .F. ) ;
#235 = CC_DESIGN_PERSON_AND_ORGANIZATION_ASSIGNMENT ( #185, #243, ( #66 ) ) ;
#236 = VERTEX_POINT ( 'NONE', #231 ) ;
#237 = EDGE_LOOP ( 'NONE', ( #120, #60, #12, #59 ) ) ;
#238 = FACE_OUTER_BOUND ( 'NONE', #123, .T. ) ;
#239 = PRODUCT_DEFINITION_SHAPE ( 'NONE', 'NONE',  #66 ) ;
#240 = DIRECTION ( 'NONE',  ( -1.000000000000000000, 0.000000000000000000, 0.000000000000000000 ) ) ;
#241 = CARTESIAN_POINT ( 'NONE',  ( 0.000000000000000000, 0.000000000000000000, 7.000000000000000000 ) ) ;
#242 = DIRECTION ( 'NONE',  ( 1.000000000000000000, 0.000000000000000000, 0.000000000000000000 ) ) ;
#243 = PERSON_AND_ORGANIZATION_ROLE ( 'creator' ) ;
#244 = PRODUCT ( '42ce', '42ce', '', ( #148 ) ) ;
#245 = CIRCLE ( 'NONE', #36, 9.000000000000000000 ) ;
#246 = DIRECTION ( 'NONE',  ( 0.000000000000000000, 0.000000000000000000, 1.000000000000000000 ) ) ;
#247 =( NAMED_UNIT ( * ) PLANE_ANGLE_UNIT ( ) SI_UNIT ( $, .RADIAN. ) );
#248 = CC_DESIGN_PERSON_AND_ORGANIZATION_ASSIGNMENT ( #170, #51, ( #204 ) ) ;
#249 = VERTEX_POINT ( 'NONE', #35 ) ;
#250 = PERSON ( 'NEURÈENÝ', 'NEURÈENÝ', 'NEURÈENÝ', ('NEURÈENÝ'), ('NEURÈENÝ'), ('NEURÈENÝ') ) ;
#251 = DIRECTION ( 'NONE',  ( 1.000000000000000000, 0.000000000000000000, 0.000000000000000000 ) ) ;
#252 = EDGE_LOOP ( 'NONE', ( #162, #160 ) ) ;
#253 = DIRECTION ( 'NONE',  ( 0.000000000000000000, 0.000000000000000000, 1.000000000000000000 ) ) ;
#254 = DIRECTION ( 'NONE',  ( -0.000000000000000000, -0.000000000000000000, -1.000000000000000000 ) ) ;
#255 = PLANE ( 'NONE',  #29 ) ;
ENDSEC;
END-ISO-10303-21;
