ISO-10303-21;
HEADER;
FILE_DESCRIPTION (( 'STEP AP203' ),
    '1' );
FILE_NAME ('25ba.STEP',
    '2023-02-13T14:06:01',
    ( '' ),
    ( '' ),
    'SwSTEP 2.0',
    'SolidWorks 2019',
    '' );
FILE_SCHEMA (( 'CONFIG_CONTROL_DESIGN' ));
ENDSEC;

DATA;
#1 = DIRECTION ( 'NONE',  ( 0.000000000000000000, 0.000000000000000000, 1.000000000000000000 ) ) ;
#2 = CARTESIAN_POINT ( 'NONE',  ( 0.000000000000000000, 0.000000000000000000, 5.000000000000000000 ) ) ;
#3 = ORIENTED_EDGE ( 'NONE', *, *, #150, .T. ) ;
#4 = EDGE_LOOP ( 'NONE', ( #58, #216 ) ) ;
#5 = CYLINDRICAL_SURFACE ( 'NONE', #168, 3.100000000000000089 ) ;
#6 = CARTESIAN_POINT ( 'NONE',  ( 6.000000000000000888, 7.347880794884120722E-16, 0.000000000000000000 ) ) ;
#7 = CARTESIAN_POINT ( 'NONE',  ( 0.000000000000000000, 0.000000000000000000, 5.000000000000000000 ) ) ;
#8 = CC_DESIGN_DATE_AND_TIME_ASSIGNMENT ( #213, #195, ( #192 ) ) ;
#9 = FACE_OUTER_BOUND ( 'NONE', #110, .T. ) ;
#10 = VECTOR ( 'NONE', #101, 1000.000000000000000 ) ;
#11 = DIRECTION ( 'NONE',  ( -0.000000000000000000, -0.000000000000000000, -1.000000000000000000 ) ) ;
#12 = COORDINATED_UNIVERSAL_TIME_OFFSET ( 1, 0, .AHEAD. ) ;
#13 = CLOSED_SHELL ( 'NONE', ( #146, #182, #137, #85, #23, #227, #203 ) ) ;
#14 = CALENDAR_DATE ( 2023, 13, 2 ) ;
#15 = ORIENTED_EDGE ( 'NONE', *, *, #73, .F. ) ;
#16 = APPROVAL_DATE_TIME ( #36, #211 ) ;
#17 = FACE_BOUND ( 'NONE', #4, .T. ) ;
#18 = ORIENTED_EDGE ( 'NONE', *, *, #113, .F. ) ;
#19 = DIRECTION ( 'NONE',  ( -0.000000000000000000, -0.000000000000000000, -1.000000000000000000 ) ) ;
#20 = PRODUCT_RELATED_PRODUCT_CATEGORY ( 'detail', '', ( #218 ) ) ;
#21 = PLANE ( 'NONE',  #251 ) ;
#22 = DIRECTION ( 'NONE',  ( -0.000000000000000000, -0.000000000000000000, -1.000000000000000000 ) ) ;
#23 = ADVANCED_FACE ( 'NONE', ( #214 ), #80, .F. ) ;
#24 = CIRCLE ( 'NONE', #187, 3.100000000000000089 ) ;
#25 =( NAMED_UNIT ( * ) PLANE_ANGLE_UNIT ( ) SI_UNIT ( $, .RADIAN. ) );
#26 = CARTESIAN_POINT ( 'NONE',  ( 0.000000000000000000, 0.000000000000000000, 5.000000000000000000 ) ) ;
#27 = UNCERTAINTY_MEASURE_WITH_UNIT (LENGTH_MEASURE( 1.000000000000000082E-05 ), #163, 'distance_accuracy_value', 'NONE');
#28 = VECTOR ( 'NONE', #119, 1000.000000000000000 ) ;
#29 = PERSON_AND_ORGANIZATION ( #239, #105 ) ;
#30 = CIRCLE ( 'NONE', #117, 6.000000000000000888 ) ;
#31 = APPROVAL_STATUS ( 'not_yet_approved' ) ;
#32 = PERSON_AND_ORGANIZATION ( #239, #105 ) ;
#33 = CALENDAR_DATE ( 2023, 13, 2 ) ;
#34 = VECTOR ( 'NONE', #19, 1000.000000000000000 ) ;
#35 = VERTEX_POINT ( 'NONE', #135 ) ;
#36 = DATE_AND_TIME ( #57, #72 ) ;
#37 = EDGE_CURVE ( 'NONE', #116, #56, #78, .T. ) ;
#38 = DIRECTION ( 'NONE',  ( 0.000000000000000000, 0.000000000000000000, 1.000000000000000000 ) ) ;
#39 = LOCAL_TIME ( 15, 6, 1.000000000000000000, #12 ) ;
#40 = DIRECTION ( 'NONE',  ( 0.000000000000000000, 0.000000000000000000, 1.000000000000000000 ) ) ;
#41 = PRODUCT_DEFINITION_SHAPE ( 'NONE', 'NONE',  #192 ) ;
#42 = CARTESIAN_POINT ( 'NONE',  ( -6.000000000000000888, 0.000000000000000000, 5.000000000000000000 ) ) ;
#43 = EDGE_LOOP ( 'NONE', ( #98, #3, #219, #197 ) ) ;
#44 = AXIS2_PLACEMENT_3D ( 'NONE', #67, #139, #245 ) ;
#45 = CARTESIAN_POINT ( 'NONE',  ( 6.000000000000000888, 7.347880794884120722E-16, 5.000000000000000000 ) ) ;
#46 = DIRECTION ( 'NONE',  ( 1.000000000000000000, 0.000000000000000000, 0.000000000000000000 ) ) ;
#47 = VECTOR ( 'NONE', #11, 1000.000000000000000 ) ;
#48 = LINE ( 'NONE', #45, #28 ) ;
#49 = FACE_OUTER_BOUND ( 'NONE', #43, .T. ) ;
#50 = DIRECTION ( 'NONE',  ( 0.000000000000000000, 0.000000000000000000, 1.000000000000000000 ) ) ;
#51 = COORDINATED_UNIVERSAL_TIME_OFFSET ( 1, 0, .AHEAD. ) ;
#52 = AXIS2_PLACEMENT_3D ( 'NONE', #66, #50, #247 ) ;
#53 = COORDINATED_UNIVERSAL_TIME_OFFSET ( 1, 0, .AHEAD. ) ;
#54 = PERSON_AND_ORGANIZATION_ROLE ( 'design_owner' ) ;
#55 = CC_DESIGN_PERSON_AND_ORGANIZATION_ASSIGNMENT ( #104, #71, ( #192 ) ) ;
#56 = VERTEX_POINT ( 'NONE', #94 ) ;
#57 = CALENDAR_DATE ( 2023, 13, 2 ) ;
#58 = ORIENTED_EDGE ( 'NONE', *, *, #102, .F. ) ;
#59 = ADVANCED_BREP_SHAPE_REPRESENTATION ( '25ba', ( #208, #191 ), #133 ) ;
#60 = LOCAL_TIME ( 15, 6, 1.000000000000000000, #188 ) ;
#61 = ORIENTED_EDGE ( 'NONE', *, *, #198, .F. ) ;
#62 = VERTEX_POINT ( 'NONE', #154 ) ;
#63 = ORIENTED_EDGE ( 'NONE', *, *, #198, .T. ) ;
#64 = CARTESIAN_POINT ( 'NONE',  ( 0.000000000000000000, 0.000000000000000000, 125.0000000000000000 ) ) ;
#65 = APPROVAL_PERSON_ORGANIZATION ( #131, #217, #248 ) ;
#66 = CARTESIAN_POINT ( 'NONE',  ( 0.000000000000000000, 0.000000000000000000, 0.000000000000000000 ) ) ;
#67 = CARTESIAN_POINT ( 'NONE',  ( 0.000000000000000000, 0.000000000000000000, 125.0000000000000000 ) ) ;
#68 = DIRECTION ( 'NONE',  ( -1.000000000000000000, 0.000000000000000000, 0.000000000000000000 ) ) ;
#69 = DIRECTION ( 'NONE',  ( 0.000000000000000000, 0.000000000000000000, 1.000000000000000000 ) ) ;
#70 = CC_DESIGN_DATE_AND_TIME_ASSIGNMENT ( #96, #190, ( #215 ) ) ;
#71 = PERSON_AND_ORGANIZATION_ROLE ( 'creator' ) ;
#72 = LOCAL_TIME ( 15, 6, 1.000000000000000000, #166 ) ;
#73 = EDGE_CURVE ( 'NONE', #153, #116, #210, .T. ) ;
#74 = PERSON_AND_ORGANIZATION ( #239, #105 ) ;
#75 = AXIS2_PLACEMENT_3D ( 'NONE', #76, #38, #196 ) ;
#76 = CARTESIAN_POINT ( 'NONE',  ( 0.000000000000000000, 0.000000000000000000, 5.000000000000000000 ) ) ;
#77 = APPROVAL_ROLE ( '' ) ;
#78 = LINE ( 'NONE', #42, #34 ) ;
#79 = DIRECTION ( 'NONE',  ( 0.000000000000000000, 0.000000000000000000, 1.000000000000000000 ) ) ;
#80 = PLANE ( 'NONE',  #231 ) ;
#81 = ORIENTED_EDGE ( 'NONE', *, *, #155, .T. ) ;
#82 = DIRECTION ( 'NONE',  ( -1.000000000000000000, 0.000000000000000000, 0.000000000000000000 ) ) ;
#83 = CYLINDRICAL_SURFACE ( 'NONE', #108, 6.000000000000000888 ) ;
#84 = PRODUCT_DEFINITION_FORMATION_WITH_SPECIFIED_SOURCE ( 'LIBOVOLNÝ', '', #218, .NOT_KNOWN. ) ;
#85 = ADVANCED_FACE ( 'NONE', ( #17, #97 ), #174, .T. ) ;
#86 = LINE ( 'NONE', #246, #10 ) ;
#87 = CARTESIAN_POINT ( 'NONE',  ( 3.100000000000000089, 3.796405077356794918E-16, 125.0000000000000000 ) ) ;
#88 = CARTESIAN_POINT ( 'NONE',  ( 0.000000000000000000, 0.000000000000000000, 5.000000000000000000 ) ) ;
#89 = APPROVAL_DATE_TIME ( #167, #93 ) ;
#90 = MECHANICAL_CONTEXT ( 'NONE', #225, 'mechanical' ) ;
#91 = CC_DESIGN_SECURITY_CLASSIFICATION ( #215, ( #84 ) ) ;
#92 = PERSON_AND_ORGANIZATION ( #239, #105 ) ;
#93 = APPROVAL ( #31, 'NEURÈENÝ' ) ;
#94 = CARTESIAN_POINT ( 'NONE',  ( -6.000000000000000888, 0.000000000000000000, 0.000000000000000000 ) ) ;
#95 = CARTESIAN_POINT ( 'NONE',  ( 0.000000000000000000, 0.000000000000000000, 0.000000000000000000 ) ) ;
#96 = DATE_AND_TIME ( #33, #39 ) ;
#97 = FACE_OUTER_BOUND ( 'NONE', #112, .T. ) ;
#98 = ORIENTED_EDGE ( 'NONE', *, *, #243, .F. ) ;
#99 = CARTESIAN_POINT ( 'NONE',  ( 0.000000000000000000, 0.000000000000000000, 125.0000000000000000 ) ) ;
#100 = DIRECTION ( 'NONE',  ( -1.000000000000000000, 0.000000000000000000, 0.000000000000000000 ) ) ;
#101 = DIRECTION ( 'NONE',  ( -0.000000000000000000, -0.000000000000000000, -1.000000000000000000 ) ) ;
#102 = EDGE_CURVE ( 'NONE', #220, #35, #128, .T. ) ;
#103 = CARTESIAN_POINT ( 'NONE',  ( 0.000000000000000000, 0.000000000000000000, 125.0000000000000000 ) ) ;
#104 = PERSON_AND_ORGANIZATION ( #239, #105 ) ;
#105 = ORGANIZATION ( 'NEURÈENÝ', 'NEURÈENÝ', '' ) ;
#106 = APPROVAL_STATUS ( 'not_yet_approved' ) ;
#107 = CARTESIAN_POINT ( 'NONE',  ( 0.000000000000000000, 0.000000000000000000, 0.000000000000000000 ) ) ;
#108 = AXIS2_PLACEMENT_3D ( 'NONE', #88, #244, #68 ) ;
#109 = CC_DESIGN_PERSON_AND_ORGANIZATION_ASSIGNMENT ( #29, #54, ( #218 ) ) ;
#110 = EDGE_LOOP ( 'NONE', ( #63, #237 ) ) ;
#111 = PERSON_AND_ORGANIZATION ( #239, #105 ) ;
#112 = EDGE_LOOP ( 'NONE', ( #130, #238 ) ) ;
#113 = EDGE_CURVE ( 'NONE', #153, #235, #48, .T. ) ;
#114 = ORIENTED_EDGE ( 'NONE', *, *, #150, .F. ) ;
#115 = AXIS2_PLACEMENT_3D ( 'NONE', #2, #79, #156 ) ;
#116 = VERTEX_POINT ( 'NONE', #144 ) ;
#117 = AXIS2_PLACEMENT_3D ( 'NONE', #160, #179, #120 ) ;
#118 = DIRECTION ( 'NONE',  ( 1.000000000000000000, 0.000000000000000000, -0.000000000000000000 ) ) ;
#119 = DIRECTION ( 'NONE',  ( -0.000000000000000000, -0.000000000000000000, -1.000000000000000000 ) ) ;
#120 = DIRECTION ( 'NONE',  ( 1.000000000000000000, 0.000000000000000000, 0.000000000000000000 ) ) ;
#121 = DIRECTION ( 'NONE',  ( -1.000000000000000000, 0.000000000000000000, 0.000000000000000000 ) ) ;
#122 = AXIS2_PLACEMENT_3D ( 'NONE', #103, #69, #242 ) ;
#123 = CC_DESIGN_PERSON_AND_ORGANIZATION_ASSIGNMENT ( #74, #126, ( #84 ) ) ;
#124 = CYLINDRICAL_SURFACE ( 'NONE', #241, 3.100000000000000089 ) ;
#125 = DIRECTION ( 'NONE',  ( -0.000000000000000000, -0.000000000000000000, -1.000000000000000000 ) ) ;
#126 = PERSON_AND_ORGANIZATION_ROLE ( 'creator' ) ;
#127 = PERSON_AND_ORGANIZATION_ROLE ( 'design_supplier' ) ;
#128 = CIRCLE ( 'NONE', #199, 3.100000000000000089 ) ;
#129 = CC_DESIGN_PERSON_AND_ORGANIZATION_ASSIGNMENT ( #149, #209, ( #215 ) ) ;
#130 = ORIENTED_EDGE ( 'NONE', *, *, #140, .T. ) ;
#131 = PERSON_AND_ORGANIZATION ( #239, #105 ) ;
#132 = ORIENTED_EDGE ( 'NONE', *, *, #102, .T. ) ;
#133 =( GEOMETRIC_REPRESENTATION_CONTEXT ( 3 ) GLOBAL_UNCERTAINTY_ASSIGNED_CONTEXT ( ( #27 ) ) GLOBAL_UNIT_ASSIGNED_CONTEXT ( ( #163, #25, #147 ) ) REPRESENTATION_CONTEXT ( 'NONE', 'WORKASPACE' ) );
#134 = CARTESIAN_POINT ( 'NONE',  ( 0.000000000000000000, 0.000000000000000000, 5.000000000000000000 ) ) ;
#135 = CARTESIAN_POINT ( 'NONE',  ( 3.100000000000000089, 3.796405077356794918E-16, 5.000000000000000000 ) ) ;
#136 = ORIENTED_EDGE ( 'NONE', *, *, #232, .F. ) ;
#137 = ADVANCED_FACE ( 'NONE', ( #143 ), #226, .T. ) ;
#138 = CARTESIAN_POINT ( 'NONE',  ( 0.000000000000000000, 0.000000000000000000, 125.0000000000000000 ) ) ;
#139 = DIRECTION ( 'NONE',  ( 0.000000000000000000, 0.000000000000000000, 1.000000000000000000 ) ) ;
#140 = EDGE_CURVE ( 'NONE', #116, #153, #157, .T. ) ;
#141 = CARTESIAN_POINT ( 'NONE',  ( 0.000000000000000000, 0.000000000000000000, 5.000000000000000000 ) ) ;
#142 = AXIS2_PLACEMENT_3D ( 'NONE', #26, #228, #202 ) ;
#143 = FACE_OUTER_BOUND ( 'NONE', #193, .T. ) ;
#144 = CARTESIAN_POINT ( 'NONE',  ( -6.000000000000000888, 0.000000000000000000, 5.000000000000000000 ) ) ;
#145 = DESIGN_CONTEXT ( 'detailed design', #222, 'design' ) ;
#146 = ADVANCED_FACE ( 'NONE', ( #49 ), #124, .T. ) ;
#147 =( NAMED_UNIT ( * ) SI_UNIT ( $, .STERADIAN. ) SOLID_ANGLE_UNIT ( ) );
#148 = CC_DESIGN_APPROVAL ( #217, ( #84 ) ) ;
#149 = PERSON_AND_ORGANIZATION ( #239, #105 ) ;
#150 = EDGE_CURVE ( 'NONE', #62, #35, #184, .T. ) ;
#151 = AXIS2_PLACEMENT_3D ( 'NONE', #7, #125, #121 ) ;
#152 = CIRCLE ( 'NONE', #122, 3.100000000000000089 ) ;
#153 = VERTEX_POINT ( 'NONE', #165 ) ;
#154 = CARTESIAN_POINT ( 'NONE',  ( 3.100000000000000089, 3.796405077356794918E-16, 125.0000000000000000 ) ) ;
#155 = EDGE_CURVE ( 'NONE', #240, #220, #86, .T. ) ;
#156 = DIRECTION ( 'NONE',  ( 1.000000000000000000, 0.000000000000000000, -0.000000000000000000 ) ) ;
#157 = CIRCLE ( 'NONE', #142, 6.000000000000000888 ) ;
#158 = ORIENTED_EDGE ( 'NONE', *, *, #185, .T. ) ;
#159 = EDGE_LOOP ( 'NONE', ( #212, #136 ) ) ;
#160 = CARTESIAN_POINT ( 'NONE',  ( 0.000000000000000000, 0.000000000000000000, 0.000000000000000000 ) ) ;
#161 = CIRCLE ( 'NONE', #44, 3.100000000000000089 ) ;
#162 = CARTESIAN_POINT ( 'NONE',  ( -3.100000000000000089, 0.000000000000000000, 125.0000000000000000 ) ) ;
#163 =( LENGTH_UNIT ( ) NAMED_UNIT ( * ) SI_UNIT ( .MILLI., .METRE. ) );
#164 = DIRECTION ( 'NONE',  ( 1.000000000000000000, 0.000000000000000000, 0.000000000000000000 ) ) ;
#165 = CARTESIAN_POINT ( 'NONE',  ( 6.000000000000000888, 7.347880794884120722E-16, 5.000000000000000000 ) ) ;
#166 = COORDINATED_UNIVERSAL_TIME_OFFSET ( 1, 0, .AHEAD. ) ;
#167 = DATE_AND_TIME ( #206, #194 ) ;
#168 = AXIS2_PLACEMENT_3D ( 'NONE', #64, #22, #82 ) ;
#169 = APPROVAL_STATUS ( 'not_yet_approved' ) ;
#170 = ORIENTED_EDGE ( 'NONE', *, *, #37, .F. ) ;
#171 = LOCAL_TIME ( 15, 6, 1.000000000000000000, #51 ) ;
#172 = ORIENTED_EDGE ( 'NONE', *, *, #232, .T. ) ;
#173 = SHAPE_DEFINITION_REPRESENTATION ( #41, #59 ) ;
#174 = PLANE ( 'NONE',  #115 ) ;
#175 = EDGE_LOOP ( 'NONE', ( #114, #61, #81, #132 ) ) ;
#176 = APPROVAL_PERSON_ORGANIZATION ( #111, #93, #229 ) ;
#177 = CC_DESIGN_PERSON_AND_ORGANIZATION_ASSIGNMENT ( #32, #127, ( #84 ) ) ;
#178 = DIRECTION ( 'NONE',  ( 0.000000000000000000, 0.000000000000000000, 1.000000000000000000 ) ) ;
#179 = DIRECTION ( 'NONE',  ( 0.000000000000000000, 0.000000000000000000, 1.000000000000000000 ) ) ;
#180 = APPROVAL_PERSON_ORGANIZATION ( #92, #211, #77 ) ;
#181 = DIRECTION ( 'NONE',  ( 1.000000000000000000, 0.000000000000000000, -0.000000000000000000 ) ) ;
#182 = ADVANCED_FACE ( 'NONE', ( #205 ), #83, .T. ) ;
#183 = CARTESIAN_POINT ( 'NONE',  ( -3.100000000000000089, 0.000000000000000000, 5.000000000000000000 ) ) ;
#184 = LINE ( 'NONE', #87, #47 ) ;
#185 = EDGE_CURVE ( 'NONE', #56, #235, #224, .T. ) ;
#186 = CALENDAR_DATE ( 2023, 13, 2 ) ;
#187 = AXIS2_PLACEMENT_3D ( 'NONE', #141, #223, #46 ) ;
#188 = COORDINATED_UNIVERSAL_TIME_OFFSET ( 1, 0, .AHEAD. ) ;
#189 = DIRECTION ( 'NONE',  ( 1.000000000000000000, 0.000000000000000000, 0.000000000000000000 ) ) ;
#190 = DATE_TIME_ROLE ( 'classification_date' ) ;
#191 = AXIS2_PLACEMENT_3D ( 'NONE', #107, #230, #189 ) ;
#192 = PRODUCT_DEFINITION ( 'NEZNÁMÝ', '', #84, #145 ) ;
#193 = EDGE_LOOP ( 'NONE', ( #18, #201, #254, #158 ) ) ;
#194 = LOCAL_TIME ( 15, 6, 1.000000000000000000, #53 ) ;
#195 = DATE_TIME_ROLE ( 'creation_date' ) ;
#196 = DIRECTION ( 'NONE',  ( 1.000000000000000000, 0.000000000000000000, 0.000000000000000000 ) ) ;
#197 = ORIENTED_EDGE ( 'NONE', *, *, #155, .F. ) ;
#198 = EDGE_CURVE ( 'NONE', #240, #62, #152, .T. ) ;
#199 = AXIS2_PLACEMENT_3D ( 'NONE', #134, #40, #164 ) ;
#200 = EDGE_LOOP ( 'NONE', ( #15, #233, #172, #170 ) ) ;
#201 = ORIENTED_EDGE ( 'NONE', *, *, #140, .F. ) ;
#202 = DIRECTION ( 'NONE',  ( 1.000000000000000000, 0.000000000000000000, 0.000000000000000000 ) ) ;
#203 = ADVANCED_FACE ( 'NONE', ( #9 ), #21, .T. ) ;
#204 = FACE_OUTER_BOUND ( 'NONE', #175, .T. ) ;
#205 = FACE_OUTER_BOUND ( 'NONE', #200, .T. ) ;
#206 = CALENDAR_DATE ( 2023, 13, 2 ) ;
#207 = APPROVAL_DATE_TIME ( #234, #217 ) ;
#208 = MANIFOLD_SOLID_BREP ( 'Pøidat vysunutím3', #13 ) ;
#209 = PERSON_AND_ORGANIZATION_ROLE ( 'classification_officer' ) ;
#210 = CIRCLE ( 'NONE', #75, 6.000000000000000888 ) ;
#211 = APPROVAL ( #169, 'NEURÈENÝ' ) ;
#212 = ORIENTED_EDGE ( 'NONE', *, *, #185, .F. ) ;
#213 = DATE_AND_TIME ( #14, #171 ) ;
#214 = FACE_OUTER_BOUND ( 'NONE', #159, .T. ) ;
#215 = SECURITY_CLASSIFICATION ( '', '', #236 ) ;
#216 = ORIENTED_EDGE ( 'NONE', *, *, #253, .F. ) ;
#217 = APPROVAL ( #106, 'NEURÈENÝ' ) ;
#218 = PRODUCT ( '25ba', '25ba', '', ( #90 ) ) ;
#219 = ORIENTED_EDGE ( 'NONE', *, *, #253, .T. ) ;
#220 = VERTEX_POINT ( 'NONE', #183 ) ;
#221 = DIRECTION ( 'NONE',  ( -0.000000000000000000, -0.000000000000000000, -1.000000000000000000 ) ) ;
#222 = APPLICATION_CONTEXT ( 'configuration controlled 3d designs of mechanical parts and assemblies' ) ;
#223 = DIRECTION ( 'NONE',  ( 0.000000000000000000, 0.000000000000000000, 1.000000000000000000 ) ) ;
#224 = CIRCLE ( 'NONE', #52, 6.000000000000000888 ) ;
#225 = APPLICATION_CONTEXT ( 'configuration controlled 3d designs of mechanical parts and assemblies' ) ;
#226 = CYLINDRICAL_SURFACE ( 'NONE', #151, 6.000000000000000888 ) ;
#227 = ADVANCED_FACE ( 'NONE', ( #204 ), #5, .T. ) ;
#228 = DIRECTION ( 'NONE',  ( 0.000000000000000000, 0.000000000000000000, 1.000000000000000000 ) ) ;
#229 = APPROVAL_ROLE ( '' ) ;
#230 = DIRECTION ( 'NONE',  ( 0.000000000000000000, 0.000000000000000000, 1.000000000000000000 ) ) ;
#231 = AXIS2_PLACEMENT_3D ( 'NONE', #95, #1, #118 ) ;
#232 = EDGE_CURVE ( 'NONE', #235, #56, #30, .T. ) ;
#233 = ORIENTED_EDGE ( 'NONE', *, *, #113, .T. ) ;
#234 = DATE_AND_TIME ( #186, #60 ) ;
#235 = VERTEX_POINT ( 'NONE', #6 ) ;
#236 = SECURITY_CLASSIFICATION_LEVEL ( 'unclassified' ) ;
#237 = ORIENTED_EDGE ( 'NONE', *, *, #243, .T. ) ;
#238 = ORIENTED_EDGE ( 'NONE', *, *, #73, .T. ) ;
#239 = PERSON ( 'NEURÈENÝ', 'NEURÈENÝ', 'NEURÈENÝ', ('NEURÈENÝ'), ('NEURÈENÝ'), ('NEURÈENÝ') ) ;
#240 = VERTEX_POINT ( 'NONE', #162 ) ;
#241 = AXIS2_PLACEMENT_3D ( 'NONE', #138, #221, #100 ) ;
#242 = DIRECTION ( 'NONE',  ( 1.000000000000000000, 0.000000000000000000, 0.000000000000000000 ) ) ;
#243 = EDGE_CURVE ( 'NONE', #62, #240, #161, .T. ) ;
#244 = DIRECTION ( 'NONE',  ( -0.000000000000000000, -0.000000000000000000, -1.000000000000000000 ) ) ;
#245 = DIRECTION ( 'NONE',  ( 1.000000000000000000, 0.000000000000000000, 0.000000000000000000 ) ) ;
#246 = CARTESIAN_POINT ( 'NONE',  ( -3.100000000000000089, 0.000000000000000000, 125.0000000000000000 ) ) ;
#247 = DIRECTION ( 'NONE',  ( 1.000000000000000000, 0.000000000000000000, 0.000000000000000000 ) ) ;
#248 = APPROVAL_ROLE ( '' ) ;
#249 = APPLICATION_PROTOCOL_DEFINITION ( 'international standard', 'config_control_design', 1994, #222 ) ;
#250 = CC_DESIGN_APPROVAL ( #211, ( #215 ) ) ;
#251 = AXIS2_PLACEMENT_3D ( 'NONE', #99, #178, #181 ) ;
#252 = APPLICATION_PROTOCOL_DEFINITION ( 'international standard', 'config_control_design', 1994, #225 ) ;
#253 = EDGE_CURVE ( 'NONE', #35, #220, #24, .T. ) ;
#254 = ORIENTED_EDGE ( 'NONE', *, *, #37, .T. ) ;
#255 = CC_DESIGN_APPROVAL ( #93, ( #192 ) ) ;
ENDSEC;
END-ISO-10303-21;
