ISO-10303-21;
HEADER;
FILE_DESCRIPTION (( 'STEP AP203' ),
    '1' );
FILE_NAME ('6ccb.STEP',
    '2023-02-13T10:20:03',
    ( '' ),
    ( '' ),
    'SwSTEP 2.0',
    'SolidWorks 2019',
    '' );
FILE_SCHEMA (( 'CONFIG_CONTROL_DESIGN' ));
ENDSEC;

DATA;
#1 = AXIS2_PLACEMENT_3D ( 'NONE', #83, #157, #237 ) ;
#2 = CARTESIAN_POINT ( 'NONE',  ( -10.00000000000000000, 0.000000000000000000, 7.000000000000000000 ) ) ;
#3 = CARTESIAN_POINT ( 'NONE',  ( -10.00000000000000000, 0.000000000000000000, 0.000000000000000000 ) ) ;
#4 = VECTOR ( 'NONE', #156, 1000.000000000000000 ) ;
#5 = CC_DESIGN_PERSON_AND_ORGANIZATION_ASSIGNMENT ( #207, #192, ( #31 ) ) ;
#6 = CARTESIAN_POINT ( 'NONE',  ( 10.00000000000000000, 1.224646799147353256E-15, 7.000000000000000000 ) ) ;
#7 = DIRECTION ( 'NONE',  ( 0.000000000000000000, 0.000000000000000000, 1.000000000000000000 ) ) ;
#8 = CARTESIAN_POINT ( 'NONE',  ( -6.000000000000000888, 0.000000000000000000, 250.0000000000000000 ) ) ;
#9 = DIRECTION ( 'NONE',  ( 1.000000000000000000, 0.000000000000000000, 0.000000000000000000 ) ) ;
#10 = VERTEX_POINT ( 'NONE', #147 ) ;
#11 =( NAMED_UNIT ( * ) PLANE_ANGLE_UNIT ( ) SI_UNIT ( $, .RADIAN. ) );
#12 = ORGANIZATION ( 'NEURÈENÝ', 'NEURÈENÝ', '' ) ;
#13 = ORIENTED_EDGE ( 'NONE', *, *, #238, .T. ) ;
#14 = DIRECTION ( 'NONE',  ( 0.000000000000000000, 0.000000000000000000, 1.000000000000000000 ) ) ;
#15 = ORIENTED_EDGE ( 'NONE', *, *, #94, .T. ) ;
#16 = COORDINATED_UNIVERSAL_TIME_OFFSET ( 1, 0, .AHEAD. ) ;
#17 = ADVANCED_FACE ( 'NONE', ( #225 ), #37, .T. ) ;
#18 = ORIENTED_EDGE ( 'NONE', *, *, #221, .T. ) ;
#19 = DIRECTION ( 'NONE',  ( -1.000000000000000000, 0.000000000000000000, 0.000000000000000000 ) ) ;
#20 = EDGE_CURVE ( 'NONE', #79, #55, #111, .T. ) ;
#21 = CARTESIAN_POINT ( 'NONE',  ( -6.000000000000000888, 0.000000000000000000, 250.0000000000000000 ) ) ;
#22 = CARTESIAN_POINT ( 'NONE',  ( 6.000000000000000888, 7.347880794884120722E-16, 7.000000000000000000 ) ) ;
#23 = CC_DESIGN_APPROVAL ( #212, ( #31 ) ) ;
#24 = APPROVAL ( #200, 'NEURÈENÝ' ) ;
#25 = CARTESIAN_POINT ( 'NONE',  ( 0.000000000000000000, 0.000000000000000000, 7.000000000000000000 ) ) ;
#26 = EDGE_CURVE ( 'NONE', #79, #168, #104, .T. ) ;
#27 = CYLINDRICAL_SURFACE ( 'NONE', #45, 6.000000000000000888 ) ;
#28 = APPROVAL_ROLE ( '' ) ;
#29 = CARTESIAN_POINT ( 'NONE',  ( 0.000000000000000000, 0.000000000000000000, 7.000000000000000000 ) ) ;
#30 = CALENDAR_DATE ( 2023, 13, 2 ) ;
#31 = SECURITY_CLASSIFICATION ( '', '', #150 ) ;
#32 = ORIENTED_EDGE ( 'NONE', *, *, #154, .T. ) ;
#33 = DIRECTION ( 'NONE',  ( 0.000000000000000000, 0.000000000000000000, 1.000000000000000000 ) ) ;
#34 = ORIENTED_EDGE ( 'NONE', *, *, #238, .F. ) ;
#35 = DATE_AND_TIME ( #219, #204 ) ;
#36 = EDGE_LOOP ( 'NONE', ( #67, #34 ) ) ;
#37 = CYLINDRICAL_SURFACE ( 'NONE', #61, 10.00000000000000000 ) ;
#38 = SHAPE_DEFINITION_REPRESENTATION ( #239, #56 ) ;
#39 = PERSON ( 'NEURÈENÝ', 'NEURÈENÝ', 'NEURÈENÝ', ('NEURÈENÝ'), ('NEURÈENÝ'), ('NEURÈENÝ') ) ;
#40 = PERSON_AND_ORGANIZATION ( #39, #12 ) ;
#41 = CC_DESIGN_APPROVAL ( #134, ( #193 ) ) ;
#42 = DIRECTION ( 'NONE',  ( -1.000000000000000000, 0.000000000000000000, 0.000000000000000000 ) ) ;
#43 = EDGE_CURVE ( 'NONE', #89, #10, #100, .T. ) ;
#44 = DESIGN_CONTEXT ( 'detailed design', #172, 'design' ) ;
#45 = AXIS2_PLACEMENT_3D ( 'NONE', #195, #162, #85 ) ;
#46 = LOCAL_TIME ( 11, 20, 3.000000000000000000, #167 ) ;
#47 = ADVANCED_FACE ( 'NONE', ( #245 ), #110, .T. ) ;
#48 = CARTESIAN_POINT ( 'NONE',  ( 6.000000000000000888, 7.347880794884120722E-16, 250.0000000000000000 ) ) ;
#49 = DIRECTION ( 'NONE',  ( 1.000000000000000000, 0.000000000000000000, 0.000000000000000000 ) ) ;
#50 = DATE_TIME_ROLE ( 'creation_date' ) ;
#51 = ORIENTED_EDGE ( 'NONE', *, *, #255, .T. ) ;
#52 = DIRECTION ( 'NONE',  ( -0.000000000000000000, -0.000000000000000000, -1.000000000000000000 ) ) ;
#53 = APPROVAL_ROLE ( '' ) ;
#54 = ORIENTED_EDGE ( 'NONE', *, *, #43, .F. ) ;
#55 = VERTEX_POINT ( 'NONE', #22 ) ;
#56 = ADVANCED_BREP_SHAPE_REPRESENTATION ( '6ccb', ( #119, #91 ), #173 ) ;
#57 = ORIENTED_EDGE ( 'NONE', *, *, #217, .F. ) ;
#58 = CIRCLE ( 'NONE', #196, 6.000000000000000888 ) ;
#59 = EDGE_CURVE ( 'NONE', #189, #232, #235, .T. ) ;
#60 = EDGE_CURVE ( 'NONE', #168, #114, #177, .T. ) ;
#61 = AXIS2_PLACEMENT_3D ( 'NONE', #29, #164, #19 ) ;
#62 = AXIS2_PLACEMENT_3D ( 'NONE', #144, #222, #73 ) ;
#63 = CARTESIAN_POINT ( 'NONE',  ( 0.000000000000000000, 0.000000000000000000, 250.0000000000000000 ) ) ;
#64 = DIRECTION ( 'NONE',  ( 1.000000000000000000, 0.000000000000000000, -0.000000000000000000 ) ) ;
#65 = ORIENTED_EDGE ( 'NONE', *, *, #255, .F. ) ;
#66 = DATE_AND_TIME ( #242, #46 ) ;
#67 = ORIENTED_EDGE ( 'NONE', *, *, #94, .F. ) ;
#68 = APPROVAL_DATE_TIME ( #112, #24 ) ;
#69 = EDGE_CURVE ( 'NONE', #114, #55, #209, .T. ) ;
#70 = EDGE_LOOP ( 'NONE', ( #206, #145 ) ) ;
#71 = PERSON_AND_ORGANIZATION ( #39, #12 ) ;
#72 = AXIS2_PLACEMENT_3D ( 'NONE', #113, #78, #153 ) ;
#73 = DIRECTION ( 'NONE',  ( -1.000000000000000000, 0.000000000000000000, 0.000000000000000000 ) ) ;
#74 = EDGE_LOOP ( 'NONE', ( #208, #65, #166, #223 ) ) ;
#75 = DATE_TIME_ROLE ( 'classification_date' ) ;
#76 = CC_DESIGN_DATE_AND_TIME_ASSIGNMENT ( #249, #75, ( #31 ) ) ;
#77 = COORDINATED_UNIVERSAL_TIME_OFFSET ( 1, 0, .AHEAD. ) ;
#78 = DIRECTION ( 'NONE',  ( 0.000000000000000000, 0.000000000000000000, 1.000000000000000000 ) ) ;
#79 = VERTEX_POINT ( 'NONE', #48 ) ;
#80 = DATE_AND_TIME ( #152, #183 ) ;
#81 = APPROVAL_PERSON_ORGANIZATION ( #40, #212, #253 ) ;
#82 = DIRECTION ( 'NONE',  ( -0.000000000000000000, -0.000000000000000000, -1.000000000000000000 ) ) ;
#83 = CARTESIAN_POINT ( 'NONE',  ( 0.000000000000000000, 0.000000000000000000, 7.000000000000000000 ) ) ;
#84 = CIRCLE ( 'NONE', #121, 6.000000000000000888 ) ;
#85 = DIRECTION ( 'NONE',  ( -1.000000000000000000, 0.000000000000000000, 0.000000000000000000 ) ) ;
#86 = DIRECTION ( 'NONE',  ( 1.000000000000000000, 0.000000000000000000, 0.000000000000000000 ) ) ;
#87 = ADVANCED_FACE ( 'NONE', ( #138 ), #137, .T. ) ;
#88 = PLANE ( 'NONE',  #97 ) ;
#89 = VERTEX_POINT ( 'NONE', #6 ) ;
#90 = DIRECTION ( 'NONE',  ( 0.000000000000000000, 0.000000000000000000, 1.000000000000000000 ) ) ;
#91 = AXIS2_PLACEMENT_3D ( 'NONE', #190, #14, #161 ) ;
#92 = MECHANICAL_CONTEXT ( 'NONE', #159, 'mechanical' ) ;
#93 = ORIENTED_EDGE ( 'NONE', *, *, #59, .T. ) ;
#94 = EDGE_CURVE ( 'NONE', #232, #10, #230, .T. ) ;
#95 = APPLICATION_PROTOCOL_DEFINITION ( 'international standard', 'config_control_design', 1994, #159 ) ;
#96 = ORIENTED_EDGE ( 'NONE', *, *, #26, .F. ) ;
#97 = AXIS2_PLACEMENT_3D ( 'NONE', #160, #241, #64 ) ;
#98 = AXIS2_PLACEMENT_3D ( 'NONE', #231, #7, #86 ) ;
#99 = CC_DESIGN_PERSON_AND_ORGANIZATION_ASSIGNMENT ( #226, #130, ( #176 ) ) ;
#100 = LINE ( 'NONE', #170, #118 ) ;
#101 = VECTOR ( 'NONE', #52, 1000.000000000000000 ) ;
#102 = AXIS2_PLACEMENT_3D ( 'NONE', #181, #90, #186 ) ;
#103 = PLANE ( 'NONE',  #211 ) ;
#104 = CIRCLE ( 'NONE', #175, 6.000000000000000888 ) ;
#105 = DIRECTION ( 'NONE',  ( 0.000000000000000000, 0.000000000000000000, 1.000000000000000000 ) ) ;
#106 = DIRECTION ( 'NONE',  ( 0.000000000000000000, 0.000000000000000000, 1.000000000000000000 ) ) ;
#107 = DIRECTION ( 'NONE',  ( 0.000000000000000000, 0.000000000000000000, 1.000000000000000000 ) ) ;
#108 = PERSON_AND_ORGANIZATION ( #39, #12 ) ;
#109 = ADVANCED_FACE ( 'NONE', ( #120 ), #27, .T. ) ;
#110 = CYLINDRICAL_SURFACE ( 'NONE', #236, 6.000000000000000888 ) ;
#111 = LINE ( 'NONE', #251, #101 ) ;
#112 = DATE_AND_TIME ( #30, #233 ) ;
#113 = CARTESIAN_POINT ( 'NONE',  ( 0.000000000000000000, 0.000000000000000000, 7.000000000000000000 ) ) ;
#114 = VERTEX_POINT ( 'NONE', #139 ) ;
#115 = APPROVAL_STATUS ( 'not_yet_approved' ) ;
#116 = DIRECTION ( 'NONE',  ( 1.000000000000000000, 0.000000000000000000, 0.000000000000000000 ) ) ;
#117 = ADVANCED_FACE ( 'NONE', ( #215, #122 ), #103, .T. ) ;
#118 = VECTOR ( 'NONE', #252, 1000.000000000000000 ) ;
#119 = MANIFOLD_SOLID_BREP ( 'Pøidat vysunutím3', #171 ) ;
#120 = FACE_OUTER_BOUND ( 'NONE', #129, .T. ) ;
#121 = AXIS2_PLACEMENT_3D ( 'NONE', #228, #33, #49 ) ;
#122 = FACE_OUTER_BOUND ( 'NONE', #141, .T. ) ;
#123 = LOCAL_TIME ( 11, 20, 3.000000000000000000, #16 ) ;
#124 = COORDINATED_UNIVERSAL_TIME_OFFSET ( 1, 0, .AHEAD. ) ;
#125 = AXIS2_PLACEMENT_3D ( 'NONE', #63, #105, #182 ) ;
#126 = EDGE_LOOP ( 'NONE', ( #244, #229, #13, #210 ) ) ;
#127 = CC_DESIGN_SECURITY_CLASSIFICATION ( #31, ( #176 ) ) ;
#128 =( NAMED_UNIT ( * ) SI_UNIT ( $, .STERADIAN. ) SOLID_ANGLE_UNIT ( ) );
#129 = EDGE_LOOP ( 'NONE', ( #96, #247, #32, #191 ) ) ;
#130 = PERSON_AND_ORGANIZATION_ROLE ( 'design_supplier' ) ;
#131 = CIRCLE ( 'NONE', #98, 10.00000000000000000 ) ;
#132 = APPROVAL_DATE_TIME ( #80, #212 ) ;
#133 = ORIENTED_EDGE ( 'NONE', *, *, #26, .T. ) ;
#134 = APPROVAL ( #246, 'NEURÈENÝ' ) ;
#135 = DIRECTION ( 'NONE',  ( -0.000000000000000000, -0.000000000000000000, -1.000000000000000000 ) ) ;
#136 = CC_DESIGN_PERSON_AND_ORGANIZATION_ASSIGNMENT ( #143, #224, ( #193 ) ) ;
#137 = PLANE ( 'NONE',  #125 ) ;
#138 = FACE_OUTER_BOUND ( 'NONE', #149, .T. ) ;
#139 = CARTESIAN_POINT ( 'NONE',  ( -6.000000000000000888, 0.000000000000000000, 7.000000000000000000 ) ) ;
#140 = CARTESIAN_POINT ( 'NONE',  ( -10.00000000000000000, 0.000000000000000000, 7.000000000000000000 ) ) ;
#141 = EDGE_LOOP ( 'NONE', ( #227, #18 ) ) ;
#142 = APPLICATION_PROTOCOL_DEFINITION ( 'international standard', 'config_control_design', 1994, #172 ) ;
#143 = PERSON_AND_ORGANIZATION ( #39, #12 ) ;
#144 = CARTESIAN_POINT ( 'NONE',  ( 0.000000000000000000, 0.000000000000000000, 7.000000000000000000 ) ) ;
#145 = ORIENTED_EDGE ( 'NONE', *, *, #154, .F. ) ;
#146 = PERSON_AND_ORGANIZATION ( #39, #12 ) ;
#147 = CARTESIAN_POINT ( 'NONE',  ( 10.00000000000000000, 1.224646799147353256E-15, 0.000000000000000000 ) ) ;
#148 = PERSON_AND_ORGANIZATION_ROLE ( 'creator' ) ;
#149 = EDGE_LOOP ( 'NONE', ( #51, #133 ) ) ;
#150 = SECURITY_CLASSIFICATION_LEVEL ( 'unclassified' ) ;
#151 = DIRECTION ( 'NONE',  ( 0.000000000000000000, 0.000000000000000000, 1.000000000000000000 ) ) ;
#152 = CALENDAR_DATE ( 2023, 13, 2 ) ;
#153 = DIRECTION ( 'NONE',  ( 1.000000000000000000, 0.000000000000000000, 0.000000000000000000 ) ) ;
#154 = EDGE_CURVE ( 'NONE', #55, #114, #58, .T. ) ;
#155 = APPROVAL_PERSON_ORGANIZATION ( #146, #134, #53 ) ;
#156 = DIRECTION ( 'NONE',  ( -0.000000000000000000, -0.000000000000000000, -1.000000000000000000 ) ) ;
#157 = DIRECTION ( 'NONE',  ( 0.000000000000000000, 0.000000000000000000, 1.000000000000000000 ) ) ;
#158 = PRODUCT_RELATED_PRODUCT_CATEGORY ( 'detail', '', ( #174 ) ) ;
#159 = APPLICATION_CONTEXT ( 'configuration controlled 3d designs of mechanical parts and assemblies' ) ;
#160 = CARTESIAN_POINT ( 'NONE',  ( 0.000000000000000000, 0.000000000000000000, 0.000000000000000000 ) ) ;
#161 = DIRECTION ( 'NONE',  ( 1.000000000000000000, 0.000000000000000000, 0.000000000000000000 ) ) ;
#162 = DIRECTION ( 'NONE',  ( -0.000000000000000000, -0.000000000000000000, -1.000000000000000000 ) ) ;
#163 = PERSON_AND_ORGANIZATION ( #39, #12 ) ;
#164 = DIRECTION ( 'NONE',  ( -0.000000000000000000, -0.000000000000000000, -1.000000000000000000 ) ) ;
#165 =( LENGTH_UNIT ( ) NAMED_UNIT ( * ) SI_UNIT ( .MILLI., .METRE. ) );
#166 = ORIENTED_EDGE ( 'NONE', *, *, #60, .T. ) ;
#167 = COORDINATED_UNIVERSAL_TIME_OFFSET ( 1, 0, .AHEAD. ) ;
#168 = VERTEX_POINT ( 'NONE', #8 ) ;
#169 = CALENDAR_DATE ( 2023, 13, 2 ) ;
#170 = CARTESIAN_POINT ( 'NONE',  ( 10.00000000000000000, 1.224646799147353256E-15, 7.000000000000000000 ) ) ;
#171 = CLOSED_SHELL ( 'NONE', ( #109, #214, #17, #117, #185, #47, #87 ) ) ;
#172 = APPLICATION_CONTEXT ( 'configuration controlled 3d designs of mechanical parts and assemblies' ) ;
#173 =( GEOMETRIC_REPRESENTATION_CONTEXT ( 3 ) GLOBAL_UNCERTAINTY_ASSIGNED_CONTEXT ( ( #180 ) ) GLOBAL_UNIT_ASSIGNED_CONTEXT ( ( #165, #11, #128 ) ) REPRESENTATION_CONTEXT ( 'NONE', 'WORKASPACE' ) );
#174 = PRODUCT ( '6ccb', '6ccb', '', ( #92 ) ) ;
#175 = AXIS2_PLACEMENT_3D ( 'NONE', #205, #151, #116 ) ;
#176 = PRODUCT_DEFINITION_FORMATION_WITH_SPECIFIED_SOURCE ( 'LIBOVOLNÝ', '', #174, .NOT_KNOWN. ) ;
#177 = LINE ( 'NONE', #21, #4 ) ;
#178 = CARTESIAN_POINT ( 'NONE',  ( 0.000000000000000000, 0.000000000000000000, 0.000000000000000000 ) ) ;
#179 = DIRECTION ( 'NONE',  ( 1.000000000000000000, 0.000000000000000000, -0.000000000000000000 ) ) ;
#180 = UNCERTAINTY_MEASURE_WITH_UNIT (LENGTH_MEASURE( 1.000000000000000082E-05 ), #165, 'distance_accuracy_value', 'NONE');
#181 = CARTESIAN_POINT ( 'NONE',  ( 0.000000000000000000, 0.000000000000000000, 0.000000000000000000 ) ) ;
#182 = DIRECTION ( 'NONE',  ( 1.000000000000000000, 0.000000000000000000, -0.000000000000000000 ) ) ;
#183 = LOCAL_TIME ( 11, 20, 3.000000000000000000, #77 ) ;
#184 = DIRECTION ( 'NONE',  ( 1.000000000000000000, 0.000000000000000000, 0.000000000000000000 ) ) ;
#185 = ADVANCED_FACE ( 'NONE', ( #199 ), #88, .F. ) ;
#186 = DIRECTION ( 'NONE',  ( 1.000000000000000000, 0.000000000000000000, 0.000000000000000000 ) ) ;
#187 = DIRECTION ( 'NONE',  ( 0.000000000000000000, 0.000000000000000000, 1.000000000000000000 ) ) ;
#188 = APPROVAL_PERSON_ORGANIZATION ( #71, #24, #28 ) ;
#189 = VERTEX_POINT ( 'NONE', #140 ) ;
#190 = CARTESIAN_POINT ( 'NONE',  ( 0.000000000000000000, 0.000000000000000000, 0.000000000000000000 ) ) ;
#191 = ORIENTED_EDGE ( 'NONE', *, *, #60, .F. ) ;
#192 = PERSON_AND_ORGANIZATION_ROLE ( 'classification_officer' ) ;
#193 = PRODUCT_DEFINITION ( 'NEZNÁMÝ', '', #176, #44 ) ;
#194 = EDGE_LOOP ( 'NONE', ( #54, #57, #93, #15 ) ) ;
#195 = CARTESIAN_POINT ( 'NONE',  ( 0.000000000000000000, 0.000000000000000000, 250.0000000000000000 ) ) ;
#196 = AXIS2_PLACEMENT_3D ( 'NONE', #25, #106, #184 ) ;
#197 = CARTESIAN_POINT ( 'NONE',  ( 0.000000000000000000, 0.000000000000000000, 7.000000000000000000 ) ) ;
#198 = CC_DESIGN_PERSON_AND_ORGANIZATION_ASSIGNMENT ( #163, #202, ( #174 ) ) ;
#199 = FACE_OUTER_BOUND ( 'NONE', #36, .T. ) ;
#200 = APPROVAL_STATUS ( 'not_yet_approved' ) ;
#201 = CYLINDRICAL_SURFACE ( 'NONE', #62, 10.00000000000000000 ) ;
#202 = PERSON_AND_ORGANIZATION_ROLE ( 'design_owner' ) ;
#203 = CC_DESIGN_PERSON_AND_ORGANIZATION_ASSIGNMENT ( #108, #148, ( #176 ) ) ;
#204 = LOCAL_TIME ( 11, 20, 3.000000000000000000, #220 ) ;
#205 = CARTESIAN_POINT ( 'NONE',  ( 0.000000000000000000, 0.000000000000000000, 250.0000000000000000 ) ) ;
#206 = ORIENTED_EDGE ( 'NONE', *, *, #69, .F. ) ;
#207 = PERSON_AND_ORGANIZATION ( #39, #12 ) ;
#208 = ORIENTED_EDGE ( 'NONE', *, *, #20, .F. ) ;
#209 = CIRCLE ( 'NONE', #1, 6.000000000000000888 ) ;
#210 = ORIENTED_EDGE ( 'NONE', *, *, #59, .F. ) ;
#211 = AXIS2_PLACEMENT_3D ( 'NONE', #197, #107, #179 ) ;
#212 = APPROVAL ( #115, 'NEURÈENÝ' ) ;
#213 = CIRCLE ( 'NONE', #72, 10.00000000000000000 ) ;
#214 = ADVANCED_FACE ( 'NONE', ( #218 ), #201, .T. ) ;
#215 = FACE_BOUND ( 'NONE', #70, .T. ) ;
#216 = VECTOR ( 'NONE', #135, 1000.000000000000000 ) ;
#217 = EDGE_CURVE ( 'NONE', #189, #89, #213, .T. ) ;
#218 = FACE_OUTER_BOUND ( 'NONE', #126, .T. ) ;
#219 = CALENDAR_DATE ( 2023, 13, 2 ) ;
#220 = COORDINATED_UNIVERSAL_TIME_OFFSET ( 1, 0, .AHEAD. ) ;
#221 = EDGE_CURVE ( 'NONE', #89, #189, #131, .T. ) ;
#222 = DIRECTION ( 'NONE',  ( -0.000000000000000000, -0.000000000000000000, -1.000000000000000000 ) ) ;
#223 = ORIENTED_EDGE ( 'NONE', *, *, #69, .T. ) ;
#224 = PERSON_AND_ORGANIZATION_ROLE ( 'creator' ) ;
#225 = FACE_OUTER_BOUND ( 'NONE', #194, .T. ) ;
#226 = PERSON_AND_ORGANIZATION ( #39, #12 ) ;
#227 = ORIENTED_EDGE ( 'NONE', *, *, #217, .T. ) ;
#228 = CARTESIAN_POINT ( 'NONE',  ( 0.000000000000000000, 0.000000000000000000, 250.0000000000000000 ) ) ;
#229 = ORIENTED_EDGE ( 'NONE', *, *, #43, .T. ) ;
#230 = CIRCLE ( 'NONE', #102, 10.00000000000000000 ) ;
#231 = CARTESIAN_POINT ( 'NONE',  ( 0.000000000000000000, 0.000000000000000000, 7.000000000000000000 ) ) ;
#232 = VERTEX_POINT ( 'NONE', #3 ) ;
#233 = LOCAL_TIME ( 11, 20, 3.000000000000000000, #124 ) ;
#234 = CARTESIAN_POINT ( 'NONE',  ( 0.000000000000000000, 0.000000000000000000, 250.0000000000000000 ) ) ;
#235 = LINE ( 'NONE', #2, #216 ) ;
#236 = AXIS2_PLACEMENT_3D ( 'NONE', #234, #82, #42 ) ;
#237 = DIRECTION ( 'NONE',  ( 1.000000000000000000, 0.000000000000000000, 0.000000000000000000 ) ) ;
#238 = EDGE_CURVE ( 'NONE', #10, #232, #254, .T. ) ;
#239 = PRODUCT_DEFINITION_SHAPE ( 'NONE', 'NONE',  #193 ) ;
#240 = CC_DESIGN_APPROVAL ( #24, ( #176 ) ) ;
#241 = DIRECTION ( 'NONE',  ( 0.000000000000000000, 0.000000000000000000, 1.000000000000000000 ) ) ;
#242 = CALENDAR_DATE ( 2023, 13, 2 ) ;
#243 = AXIS2_PLACEMENT_3D ( 'NONE', #178, #187, #9 ) ;
#244 = ORIENTED_EDGE ( 'NONE', *, *, #221, .F. ) ;
#245 = FACE_OUTER_BOUND ( 'NONE', #74, .T. ) ;
#246 = APPROVAL_STATUS ( 'not_yet_approved' ) ;
#247 = ORIENTED_EDGE ( 'NONE', *, *, #20, .T. ) ;
#248 = APPROVAL_DATE_TIME ( #66, #134 ) ;
#249 = DATE_AND_TIME ( #169, #123 ) ;
#250 = CC_DESIGN_DATE_AND_TIME_ASSIGNMENT ( #35, #50, ( #193 ) ) ;
#251 = CARTESIAN_POINT ( 'NONE',  ( 6.000000000000000888, 7.347880794884120722E-16, 250.0000000000000000 ) ) ;
#252 = DIRECTION ( 'NONE',  ( -0.000000000000000000, -0.000000000000000000, -1.000000000000000000 ) ) ;
#253 = APPROVAL_ROLE ( '' ) ;
#254 = CIRCLE ( 'NONE', #243, 10.00000000000000000 ) ;
#255 = EDGE_CURVE ( 'NONE', #168, #79, #84, .T. ) ;
ENDSEC;
END-ISO-10303-21;
