ISO-10303-21;
HEADER;
FILE_DESCRIPTION (( 'STEP AP203' ),
    '1' );
FILE_NAME ('b224.STEP',
    '2023-02-13T07:54:35',
    ( '' ),
    ( '' ),
    'SwSTEP 2.0',
    'SolidWorks 2019',
    '' );
FILE_SCHEMA (( 'CONFIG_CONTROL_DESIGN' ));
ENDSEC;

DATA;
#1 = CALENDAR_DATE ( 2023, 13, 2 ) ;
#2 = CIRCLE ( 'NONE', #75, 13.00000000000000178 ) ;
#3 = VECTOR ( 'NONE', #14, 1000.000000000000000 ) ;
#4 = PERSON_AND_ORGANIZATION_ROLE ( 'classification_officer' ) ;
#5 = CC_DESIGN_PERSON_AND_ORGANIZATION_ASSIGNMENT ( #211, #157, ( #179 ) ) ;
#6 = ORIENTED_EDGE ( 'NONE', *, *, #121, .F. ) ;
#7 = APPROVAL_STATUS ( 'not_yet_approved' ) ;
#8 = CARTESIAN_POINT ( 'NONE',  ( -10.00000000000000000, 0.000000000000000000, 8.000000000000000000 ) ) ;
#9 = CYLINDRICAL_SURFACE ( 'NONE', #253, 13.00000000000000178 ) ;
#10 = AXIS2_PLACEMENT_3D ( 'NONE', #110, #249, #215 ) ;
#11 = SHAPE_DEFINITION_REPRESENTATION ( #242, #80 ) ;
#12 = DIRECTION ( 'NONE',  ( -0.000000000000000000, -0.000000000000000000, -1.000000000000000000 ) ) ;
#13 = ADVANCED_FACE ( 'NONE', ( #103 ), #101, .T. ) ;
#14 = DIRECTION ( 'NONE',  ( -0.000000000000000000, -0.000000000000000000, -1.000000000000000000 ) ) ;
#15 = EDGE_CURVE ( 'NONE', #180, #137, #248, .T. ) ;
#16 = DIRECTION ( 'NONE',  ( 1.000000000000000000, 0.000000000000000000, 0.000000000000000000 ) ) ;
#17 = ORGANIZATION ( 'NEURÈENÝ', 'NEURÈENÝ', '' ) ;
#18 = ADVANCED_FACE ( 'NONE', ( #87 ), #9, .T. ) ;
#19 =( GEOMETRIC_REPRESENTATION_CONTEXT ( 3 ) GLOBAL_UNCERTAINTY_ASSIGNED_CONTEXT ( ( #233 ) ) GLOBAL_UNIT_ASSIGNED_CONTEXT ( ( #227, #214, #168 ) ) REPRESENTATION_CONTEXT ( 'NONE', 'WORKASPACE' ) );
#20 = ORIENTED_EDGE ( 'NONE', *, *, #196, .F. ) ;
#21 = DATE_AND_TIME ( #89, #125 ) ;
#22 = VERTEX_POINT ( 'NONE', #97 ) ;
#23 = APPROVAL_STATUS ( 'not_yet_approved' ) ;
#24 = DATE_AND_TIME ( #1, #136 ) ;
#25 = CARTESIAN_POINT ( 'NONE',  ( 0.000000000000000000, 0.000000000000000000, 8.000000000000000000 ) ) ;
#26 = CC_DESIGN_APPROVAL ( #232, ( #179 ) ) ;
#27 = ORIENTED_EDGE ( 'NONE', *, *, #52, .T. ) ;
#28 = APPROVAL_DATE_TIME ( #124, #219 ) ;
#29 = ORIENTED_EDGE ( 'NONE', *, *, #15, .T. ) ;
#30 = DIRECTION ( 'NONE',  ( -1.000000000000000000, 0.000000000000000000, 0.000000000000000000 ) ) ;
#31 = PLANE ( 'NONE',  #139 ) ;
#32 = LINE ( 'NONE', #198, #3 ) ;
#33 = DIRECTION ( 'NONE',  ( 0.000000000000000000, 0.000000000000000000, 1.000000000000000000 ) ) ;
#34 = CIRCLE ( 'NONE', #150, 13.00000000000000178 ) ;
#35 = EDGE_CURVE ( 'NONE', #123, #180, #129, .T. ) ;
#36 = ORIENTED_EDGE ( 'NONE', *, *, #15, .F. ) ;
#37 = AXIS2_PLACEMENT_3D ( 'NONE', #230, #59, #73 ) ;
#38 = APPROVAL_PERSON_ORGANIZATION ( #181, #232, #47 ) ;
#39 = DESIGN_CONTEXT ( 'detailed design', #197, 'design' ) ;
#40 = ORIENTED_EDGE ( 'NONE', *, *, #166, .T. ) ;
#41 = SECURITY_CLASSIFICATION_LEVEL ( 'unclassified' ) ;
#42 = LINE ( 'NONE', #49, #130 ) ;
#43 = CC_DESIGN_PERSON_AND_ORGANIZATION_ASSIGNMENT ( #190, #244, ( #183 ) ) ;
#44 = DIRECTION ( 'NONE',  ( 0.000000000000000000, 0.000000000000000000, 1.000000000000000000 ) ) ;
#45 = DIRECTION ( 'NONE',  ( 0.000000000000000000, 0.000000000000000000, 1.000000000000000000 ) ) ;
#46 = ORIENTED_EDGE ( 'NONE', *, *, #52, .F. ) ;
#47 = APPROVAL_ROLE ( '' ) ;
#48 = AXIS2_PLACEMENT_3D ( 'NONE', #91, #217, #245 ) ;
#49 = CARTESIAN_POINT ( 'NONE',  ( 10.00000000000000000, 1.224646799147353256E-15, 160.0000000000000000 ) ) ;
#50 = ORIENTED_EDGE ( 'NONE', *, *, #82, .T. ) ;
#51 = APPROVAL_DATE_TIME ( #206, #90 ) ;
#52 = EDGE_CURVE ( 'NONE', #137, #180, #2, .T. ) ;
#53 = CARTESIAN_POINT ( 'NONE',  ( 0.000000000000000000, 0.000000000000000000, 8.000000000000000000 ) ) ;
#54 = FACE_BOUND ( 'NONE', #239, .T. ) ;
#55 = DIRECTION ( 'NONE',  ( 0.000000000000000000, 0.000000000000000000, 1.000000000000000000 ) ) ;
#56 = APPLICATION_CONTEXT ( 'configuration controlled 3d designs of mechanical parts and assemblies' ) ;
#57 = CC_DESIGN_PERSON_AND_ORGANIZATION_ASSIGNMENT ( #145, #107, ( #99 ) ) ;
#58 = FACE_OUTER_BOUND ( 'NONE', #205, .T. ) ;
#59 = DIRECTION ( 'NONE',  ( 0.000000000000000000, 0.000000000000000000, 1.000000000000000000 ) ) ;
#60 = CC_DESIGN_SECURITY_CLASSIFICATION ( #175, ( #179 ) ) ;
#61 = ADVANCED_FACE ( 'NONE', ( #132 ), #131, .T. ) ;
#62 = ORIENTED_EDGE ( 'NONE', *, *, #135, .F. ) ;
#63 = ORIENTED_EDGE ( 'NONE', *, *, #100, .F. ) ;
#64 = ADVANCED_FACE ( 'NONE', ( #54, #188 ), #147, .T. ) ;
#65 = DIRECTION ( 'NONE',  ( -0.000000000000000000, -0.000000000000000000, -1.000000000000000000 ) ) ;
#66 = CALENDAR_DATE ( 2023, 13, 2 ) ;
#67 = EDGE_LOOP ( 'NONE', ( #63, #140, #155, #6 ) ) ;
#68 = COORDINATED_UNIVERSAL_TIME_OFFSET ( 1, 0, .AHEAD. ) ;
#69 = DIRECTION ( 'NONE',  ( 1.000000000000000000, 0.000000000000000000, 0.000000000000000000 ) ) ;
#70 = APPROVAL_PERSON_ORGANIZATION ( #203, #219, #104 ) ;
#71 = CARTESIAN_POINT ( 'NONE',  ( 0.000000000000000000, 0.000000000000000000, 8.000000000000000000 ) ) ;
#72 = CARTESIAN_POINT ( 'NONE',  ( 0.000000000000000000, 0.000000000000000000, 160.0000000000000000 ) ) ;
#73 = DIRECTION ( 'NONE',  ( 1.000000000000000000, 0.000000000000000000, -0.000000000000000000 ) ) ;
#74 = DIRECTION ( 'NONE',  ( 1.000000000000000000, 0.000000000000000000, -0.000000000000000000 ) ) ;
#75 = AXIS2_PLACEMENT_3D ( 'NONE', #108, #95, #16 ) ;
#76 = EDGE_CURVE ( 'NONE', #22, #106, #207, .T. ) ;
#77 = DIRECTION ( 'NONE',  ( -0.000000000000000000, -0.000000000000000000, -1.000000000000000000 ) ) ;
#78 = CARTESIAN_POINT ( 'NONE',  ( -13.00000000000000178, 0.000000000000000000, 0.000000000000000000 ) ) ;
#79 = CIRCLE ( 'NONE', #252, 10.00000000000000000 ) ;
#80 = ADVANCED_BREP_SHAPE_REPRESENTATION ( 'b224', ( #153, #208 ), #19 ) ;
#81 = ORIENTED_EDGE ( 'NONE', *, *, #100, .T. ) ;
#82 = EDGE_CURVE ( 'NONE', #123, #178, #154, .T. ) ;
#83 = AXIS2_PLACEMENT_3D ( 'NONE', #182, #65, #142 ) ;
#84 = VERTEX_POINT ( 'NONE', #216 ) ;
#85 = COORDINATED_UNIVERSAL_TIME_OFFSET ( 1, 0, .AHEAD. ) ;
#86 = VECTOR ( 'NONE', #176, 1000.000000000000000 ) ;
#87 = FACE_OUTER_BOUND ( 'NONE', #224, .T. ) ;
#88 = DATE_AND_TIME ( #120, #236 ) ;
#89 = CALENDAR_DATE ( 2023, 13, 2 ) ;
#90 = APPROVAL ( #7, 'NEURÈENÝ' ) ;
#91 = CARTESIAN_POINT ( 'NONE',  ( 0.000000000000000000, 0.000000000000000000, 8.000000000000000000 ) ) ;
#92 = AXIS2_PLACEMENT_3D ( 'NONE', #53, #55, #94 ) ;
#93 = CC_DESIGN_APPROVAL ( #219, ( #175 ) ) ;
#94 = DIRECTION ( 'NONE',  ( 1.000000000000000000, 0.000000000000000000, 0.000000000000000000 ) ) ;
#95 = DIRECTION ( 'NONE',  ( 0.000000000000000000, 0.000000000000000000, 1.000000000000000000 ) ) ;
#96 = CARTESIAN_POINT ( 'NONE',  ( 13.00000000000000178, 1.592040838891559293E-15, 8.000000000000000000 ) ) ;
#97 = CARTESIAN_POINT ( 'NONE',  ( 10.00000000000000000, 1.224646799147353256E-15, 8.000000000000000000 ) ) ;
#98 = LOCAL_TIME ( 8, 54, 35.00000000000000000, #240 ) ;
#99 = PRODUCT_DEFINITION ( 'NEZNÁMÝ', '', #179, #39 ) ;
#100 = EDGE_CURVE ( 'NONE', #84, #159, #79, .T. ) ;
#101 = CYLINDRICAL_SURFACE ( 'NONE', #83, 10.00000000000000000 ) ;
#102 = DATE_TIME_ROLE ( 'creation_date' ) ;
#103 = FACE_OUTER_BOUND ( 'NONE', #143, .T. ) ;
#104 = APPROVAL_ROLE ( '' ) ;
#105 = ORIENTED_EDGE ( 'NONE', *, *, #231, .T. ) ;
#106 = VERTEX_POINT ( 'NONE', #8 ) ;
#107 = PERSON_AND_ORGANIZATION_ROLE ( 'creator' ) ;
#108 = CARTESIAN_POINT ( 'NONE',  ( 0.000000000000000000, 0.000000000000000000, 0.000000000000000000 ) ) ;
#109 = MECHANICAL_CONTEXT ( 'NONE', #56, 'mechanical' ) ;
#110 = CARTESIAN_POINT ( 'NONE',  ( 0.000000000000000000, 0.000000000000000000, 160.0000000000000000 ) ) ;
#111 = AXIS2_PLACEMENT_3D ( 'NONE', #71, #213, #74 ) ;
#112 = DIRECTION ( 'NONE',  ( -1.000000000000000000, 0.000000000000000000, 0.000000000000000000 ) ) ;
#113 = CARTESIAN_POINT ( 'NONE',  ( -13.00000000000000178, 0.000000000000000000, 8.000000000000000000 ) ) ;
#114 = ADVANCED_FACE ( 'NONE', ( #115 ), #31, .T. ) ;
#115 = FACE_OUTER_BOUND ( 'NONE', #126, .T. ) ;
#116 = AXIS2_PLACEMENT_3D ( 'NONE', #167, #134, #30 ) ;
#117 = ORIENTED_EDGE ( 'NONE', *, *, #82, .F. ) ;
#118 = PERSON_AND_ORGANIZATION ( #189, #17 ) ;
#119 = ORIENTED_EDGE ( 'NONE', *, *, #158, .T. ) ;
#120 = CALENDAR_DATE ( 2023, 13, 2 ) ;
#121 = EDGE_CURVE ( 'NONE', #159, #106, #172, .T. ) ;
#122 = DIRECTION ( 'NONE',  ( 1.000000000000000000, 0.000000000000000000, 0.000000000000000000 ) ) ;
#123 = VERTEX_POINT ( 'NONE', #146 ) ;
#124 = DATE_AND_TIME ( #223, #98 ) ;
#125 = LOCAL_TIME ( 8, 54, 35.00000000000000000, #141 ) ;
#126 = EDGE_LOOP ( 'NONE', ( #255, #81 ) ) ;
#127 = APPLICATION_PROTOCOL_DEFINITION ( 'international standard', 'config_control_design', 1994, #56 ) ;
#128 = DIRECTION ( 'NONE',  ( -0.000000000000000000, -0.000000000000000000, -1.000000000000000000 ) ) ;
#129 = LINE ( 'NONE', #113, #192 ) ;
#130 = VECTOR ( 'NONE', #204, 1000.000000000000000 ) ;
#131 = CYLINDRICAL_SURFACE ( 'NONE', #116, 10.00000000000000000 ) ;
#132 = FACE_OUTER_BOUND ( 'NONE', #67, .T. ) ;
#133 = ADVANCED_FACE ( 'NONE', ( #251 ), #199, .T. ) ;
#134 = DIRECTION ( 'NONE',  ( -0.000000000000000000, -0.000000000000000000, -1.000000000000000000 ) ) ;
#135 = EDGE_CURVE ( 'NONE', #159, #84, #201, .T. ) ;
#136 = LOCAL_TIME ( 8, 54, 35.00000000000000000, #165 ) ;
#137 = VERTEX_POINT ( 'NONE', #246 ) ;
#138 = CC_DESIGN_PERSON_AND_ORGANIZATION_ASSIGNMENT ( #185, #4, ( #175 ) ) ;
#139 = AXIS2_PLACEMENT_3D ( 'NONE', #72, #171, #228 ) ;
#140 = ORIENTED_EDGE ( 'NONE', *, *, #196, .T. ) ;
#141 = COORDINATED_UNIVERSAL_TIME_OFFSET ( 1, 0, .AHEAD. ) ;
#142 = DIRECTION ( 'NONE',  ( -1.000000000000000000, 0.000000000000000000, 0.000000000000000000 ) ) ;
#143 = EDGE_LOOP ( 'NONE', ( #20, #62, #234, #105 ) ) ;
#144 = APPROVAL_STATUS ( 'not_yet_approved' ) ;
#145 = PERSON_AND_ORGANIZATION ( #189, #17 ) ;
#146 = CARTESIAN_POINT ( 'NONE',  ( -13.00000000000000178, 0.000000000000000000, 8.000000000000000000 ) ) ;
#147 = PLANE ( 'NONE',  #111 ) ;
#148 = CC_DESIGN_DATE_AND_TIME_ASSIGNMENT ( #88, #238, ( #175 ) ) ;
#149 = CARTESIAN_POINT ( 'NONE',  ( -10.00000000000000000, 0.000000000000000000, 160.0000000000000000 ) ) ;
#150 = AXIS2_PLACEMENT_3D ( 'NONE', #226, #195, #170 ) ;
#151 = DIRECTION ( 'NONE',  ( 1.000000000000000000, 0.000000000000000000, 0.000000000000000000 ) ) ;
#152 = PLANE ( 'NONE',  #37 ) ;
#153 = MANIFOLD_SOLID_BREP ( 'Pøidat vysunutím3', #173 ) ;
#154 = CIRCLE ( 'NONE', #48, 13.00000000000000178 ) ;
#155 = ORIENTED_EDGE ( 'NONE', *, *, #76, .T. ) ;
#156 = EDGE_LOOP ( 'NONE', ( #220, #117, #161, #29 ) ) ;
#157 = PERSON_AND_ORGANIZATION_ROLE ( 'creator' ) ;
#158 = EDGE_CURVE ( 'NONE', #178, #123, #34, .T. ) ;
#159 = VERTEX_POINT ( 'NONE', #149 ) ;
#160 = APPROVAL_DATE_TIME ( #24, #232 ) ;
#161 = ORIENTED_EDGE ( 'NONE', *, *, #35, .T. ) ;
#162 = CARTESIAN_POINT ( 'NONE',  ( 0.000000000000000000, 0.000000000000000000, 0.000000000000000000 ) ) ;
#163 = DIRECTION ( 'NONE',  ( 0.000000000000000000, 0.000000000000000000, 1.000000000000000000 ) ) ;
#164 = ORIENTED_EDGE ( 'NONE', *, *, #231, .F. ) ;
#165 = COORDINATED_UNIVERSAL_TIME_OFFSET ( 1, 0, .AHEAD. ) ;
#166 = EDGE_CURVE ( 'NONE', #178, #137, #32, .T. ) ;
#167 = CARTESIAN_POINT ( 'NONE',  ( 0.000000000000000000, 0.000000000000000000, 160.0000000000000000 ) ) ;
#168 =( NAMED_UNIT ( * ) SI_UNIT ( $, .STERADIAN. ) SOLID_ANGLE_UNIT ( ) );
#169 = LOCAL_TIME ( 8, 54, 35.00000000000000000, #68 ) ;
#170 = DIRECTION ( 'NONE',  ( 1.000000000000000000, 0.000000000000000000, 0.000000000000000000 ) ) ;
#171 = DIRECTION ( 'NONE',  ( 0.000000000000000000, 0.000000000000000000, 1.000000000000000000 ) ) ;
#172 = LINE ( 'NONE', #243, #86 ) ;
#173 = CLOSED_SHELL ( 'NONE', ( #61, #18, #133, #64, #187, #13, #114 ) ) ;
#174 = PRODUCT_RELATED_PRODUCT_CATEGORY ( 'detail', '', ( #183 ) ) ;
#175 = SECURITY_CLASSIFICATION ( '', '', #41 ) ;
#176 = DIRECTION ( 'NONE',  ( -0.000000000000000000, -0.000000000000000000, -1.000000000000000000 ) ) ;
#177 = APPROVAL_PERSON_ORGANIZATION ( #118, #90, #202 ) ;
#178 = VERTEX_POINT ( 'NONE', #96 ) ;
#179 = PRODUCT_DEFINITION_FORMATION_WITH_SPECIFIED_SOURCE ( 'LIBOVOLNÝ', '', #183, .NOT_KNOWN. ) ;
#180 = VERTEX_POINT ( 'NONE', #78 ) ;
#181 = PERSON_AND_ORGANIZATION ( #189, #17 ) ;
#182 = CARTESIAN_POINT ( 'NONE',  ( 0.000000000000000000, 0.000000000000000000, 160.0000000000000000 ) ) ;
#183 = PRODUCT ( 'b224', 'b224', '', ( #109 ) ) ;
#184 = ORIENTED_EDGE ( 'NONE', *, *, #76, .F. ) ;
#185 = PERSON_AND_ORGANIZATION ( #189, #17 ) ;
#186 = ORIENTED_EDGE ( 'NONE', *, *, #158, .F. ) ;
#187 = ADVANCED_FACE ( 'NONE', ( #58 ), #152, .F. ) ;
#188 = FACE_OUTER_BOUND ( 'NONE', #210, .T. ) ;
#189 = PERSON ( 'NEURÈENÝ', 'NEURÈENÝ', 'NEURÈENÝ', ('NEURÈENÝ'), ('NEURÈENÝ'), ('NEURÈENÝ') ) ;
#190 = PERSON_AND_ORGANIZATION ( #189, #17 ) ;
#191 = CC_DESIGN_PERSON_AND_ORGANIZATION_ASSIGNMENT ( #235, #221, ( #179 ) ) ;
#192 = VECTOR ( 'NONE', #12, 1000.000000000000000 ) ;
#193 = CARTESIAN_POINT ( 'NONE',  ( 0.000000000000000000, 0.000000000000000000, 8.000000000000000000 ) ) ;
#194 = CIRCLE ( 'NONE', #218, 10.00000000000000000 ) ;
#195 = DIRECTION ( 'NONE',  ( 0.000000000000000000, 0.000000000000000000, 1.000000000000000000 ) ) ;
#196 = EDGE_CURVE ( 'NONE', #84, #22, #42, .T. ) ;
#197 = APPLICATION_CONTEXT ( 'configuration controlled 3d designs of mechanical parts and assemblies' ) ;
#198 = CARTESIAN_POINT ( 'NONE',  ( 13.00000000000000178, 1.592040838891559293E-15, 8.000000000000000000 ) ) ;
#199 = CYLINDRICAL_SURFACE ( 'NONE', #250, 13.00000000000000178 ) ;
#200 = AXIS2_PLACEMENT_3D ( 'NONE', #222, #44, #122 ) ;
#201 = CIRCLE ( 'NONE', #10, 10.00000000000000000 ) ;
#202 = APPROVAL_ROLE ( '' ) ;
#203 = PERSON_AND_ORGANIZATION ( #189, #17 ) ;
#204 = DIRECTION ( 'NONE',  ( -0.000000000000000000, -0.000000000000000000, -1.000000000000000000 ) ) ;
#205 = EDGE_LOOP ( 'NONE', ( #36, #46 ) ) ;
#206 = DATE_AND_TIME ( #66, #169 ) ;
#207 = CIRCLE ( 'NONE', #92, 10.00000000000000000 ) ;
#208 = AXIS2_PLACEMENT_3D ( 'NONE', #162, #45, #241 ) ;
#209 = APPLICATION_PROTOCOL_DEFINITION ( 'international standard', 'config_control_design', 1994, #197 ) ;
#210 = EDGE_LOOP ( 'NONE', ( #50, #119 ) ) ;
#211 = PERSON_AND_ORGANIZATION ( #189, #17 ) ;
#212 = DIRECTION ( 'NONE',  ( -1.000000000000000000, 0.000000000000000000, 0.000000000000000000 ) ) ;
#213 = DIRECTION ( 'NONE',  ( 0.000000000000000000, 0.000000000000000000, 1.000000000000000000 ) ) ;
#214 =( NAMED_UNIT ( * ) PLANE_ANGLE_UNIT ( ) SI_UNIT ( $, .RADIAN. ) );
#215 = DIRECTION ( 'NONE',  ( 1.000000000000000000, 0.000000000000000000, 0.000000000000000000 ) ) ;
#216 = CARTESIAN_POINT ( 'NONE',  ( 10.00000000000000000, 1.224646799147353256E-15, 160.0000000000000000 ) ) ;
#217 = DIRECTION ( 'NONE',  ( 0.000000000000000000, 0.000000000000000000, 1.000000000000000000 ) ) ;
#218 = AXIS2_PLACEMENT_3D ( 'NONE', #25, #163, #69 ) ;
#219 = APPROVAL ( #23, 'NEURÈENÝ' ) ;
#220 = ORIENTED_EDGE ( 'NONE', *, *, #166, .F. ) ;
#221 = PERSON_AND_ORGANIZATION_ROLE ( 'design_supplier' ) ;
#222 = CARTESIAN_POINT ( 'NONE',  ( 0.000000000000000000, 0.000000000000000000, 0.000000000000000000 ) ) ;
#223 = CALENDAR_DATE ( 2023, 13, 2 ) ;
#224 = EDGE_LOOP ( 'NONE', ( #186, #40, #27, #237 ) ) ;
#225 = CARTESIAN_POINT ( 'NONE',  ( 0.000000000000000000, 0.000000000000000000, 8.000000000000000000 ) ) ;
#226 = CARTESIAN_POINT ( 'NONE',  ( 0.000000000000000000, 0.000000000000000000, 8.000000000000000000 ) ) ;
#227 =( LENGTH_UNIT ( ) NAMED_UNIT ( * ) SI_UNIT ( .MILLI., .METRE. ) );
#228 = DIRECTION ( 'NONE',  ( 1.000000000000000000, 0.000000000000000000, -0.000000000000000000 ) ) ;
#229 = CARTESIAN_POINT ( 'NONE',  ( 0.000000000000000000, 0.000000000000000000, 160.0000000000000000 ) ) ;
#230 = CARTESIAN_POINT ( 'NONE',  ( 0.000000000000000000, 0.000000000000000000, 0.000000000000000000 ) ) ;
#231 = EDGE_CURVE ( 'NONE', #106, #22, #194, .T. ) ;
#232 = APPROVAL ( #144, 'NEURÈENÝ' ) ;
#233 = UNCERTAINTY_MEASURE_WITH_UNIT (LENGTH_MEASURE( 1.000000000000000082E-05 ), #227, 'distance_accuracy_value', 'NONE');
#234 = ORIENTED_EDGE ( 'NONE', *, *, #121, .T. ) ;
#235 = PERSON_AND_ORGANIZATION ( #189, #17 ) ;
#236 = LOCAL_TIME ( 8, 54, 35.00000000000000000, #85 ) ;
#237 = ORIENTED_EDGE ( 'NONE', *, *, #35, .F. ) ;
#238 = DATE_TIME_ROLE ( 'classification_date' ) ;
#239 = EDGE_LOOP ( 'NONE', ( #164, #184 ) ) ;
#240 = COORDINATED_UNIVERSAL_TIME_OFFSET ( 1, 0, .AHEAD. ) ;
#241 = DIRECTION ( 'NONE',  ( 1.000000000000000000, 0.000000000000000000, 0.000000000000000000 ) ) ;
#242 = PRODUCT_DEFINITION_SHAPE ( 'NONE', 'NONE',  #99 ) ;
#243 = CARTESIAN_POINT ( 'NONE',  ( -10.00000000000000000, 0.000000000000000000, 160.0000000000000000 ) ) ;
#244 = PERSON_AND_ORGANIZATION_ROLE ( 'design_owner' ) ;
#245 = DIRECTION ( 'NONE',  ( 1.000000000000000000, 0.000000000000000000, 0.000000000000000000 ) ) ;
#246 = CARTESIAN_POINT ( 'NONE',  ( 13.00000000000000178, 1.592040838891559293E-15, 0.000000000000000000 ) ) ;
#247 = CC_DESIGN_DATE_AND_TIME_ASSIGNMENT ( #21, #102, ( #99 ) ) ;
#248 = CIRCLE ( 'NONE', #200, 13.00000000000000178 ) ;
#249 = DIRECTION ( 'NONE',  ( 0.000000000000000000, 0.000000000000000000, 1.000000000000000000 ) ) ;
#250 = AXIS2_PLACEMENT_3D ( 'NONE', #225, #128, #112 ) ;
#251 = FACE_OUTER_BOUND ( 'NONE', #156, .T. ) ;
#252 = AXIS2_PLACEMENT_3D ( 'NONE', #229, #33, #151 ) ;
#253 = AXIS2_PLACEMENT_3D ( 'NONE', #193, #77, #212 ) ;
#254 = CC_DESIGN_APPROVAL ( #90, ( #99 ) ) ;
#255 = ORIENTED_EDGE ( 'NONE', *, *, #135, .T. ) ;
ENDSEC;
END-ISO-10303-21;
