ISO-10303-21;
HEADER;
FILE_DESCRIPTION (( 'STEP AP203' ),
    '1' );
FILE_NAME ('72f6.STEP',
    '2023-02-13T14:36:16',
    ( '' ),
    ( '' ),
    'SwSTEP 2.0',
    'SolidWorks 2019',
    '' );
FILE_SCHEMA (( 'CONFIG_CONTROL_DESIGN' ));
ENDSEC;

DATA;
#1 = CARTESIAN_POINT ( 'NONE',  ( 5.000000000000000000, 6.123233995736766282E-16, 3.000000000000000000 ) ) ;
#2 = LOCAL_TIME ( 15, 36, 16.00000000000000000, #251 ) ;
#3 = ORIENTED_EDGE ( 'NONE', *, *, #4, .T. ) ;
#4 = EDGE_CURVE ( 'NONE', #164, #160, #51, .T. ) ;
#5 = COORDINATED_UNIVERSAL_TIME_OFFSET ( 1, 0, .AHEAD. ) ;
#6 = CARTESIAN_POINT ( 'NONE',  ( 0.000000000000000000, 0.000000000000000000, 3.000000000000000000 ) ) ;
#7 = ORIENTED_EDGE ( 'NONE', *, *, #52, .T. ) ;
#8 = DIRECTION ( 'NONE',  ( 0.000000000000000000, 0.000000000000000000, 1.000000000000000000 ) ) ;
#9 = ORIENTED_EDGE ( 'NONE', *, *, #230, .T. ) ;
#10 = COORDINATED_UNIVERSAL_TIME_OFFSET ( 1, 0, .AHEAD. ) ;
#11 = CARTESIAN_POINT ( 'NONE',  ( 0.000000000000000000, 0.000000000000000000, 0.000000000000000000 ) ) ;
#12 =( GEOMETRIC_REPRESENTATION_CONTEXT ( 3 ) GLOBAL_UNCERTAINTY_ASSIGNED_CONTEXT ( ( #190 ) ) GLOBAL_UNIT_ASSIGNED_CONTEXT ( ( #149, #120, #72 ) ) REPRESENTATION_CONTEXT ( 'NONE', 'WORKASPACE' ) );
#13 = APPLICATION_PROTOCOL_DEFINITION ( 'international standard', 'config_control_design', 1994, #172 ) ;
#14 = EDGE_CURVE ( 'NONE', #45, #115, #175, .T. ) ;
#15 = MANIFOLD_SOLID_BREP ( 'Pøidat vysunutím3', #111 ) ;
#16 = ADVANCED_FACE ( 'NONE', ( #37 ), #193, .T. ) ;
#17 = AXIS2_PLACEMENT_3D ( 'NONE', #224, #105, #138 ) ;
#18 = PRODUCT_DEFINITION_SHAPE ( 'NONE', 'NONE',  #78 ) ;
#19 = DIRECTION ( 'NONE',  ( 1.000000000000000000, 0.000000000000000000, 0.000000000000000000 ) ) ;
#20 = DIRECTION ( 'NONE',  ( -0.000000000000000000, -0.000000000000000000, -1.000000000000000000 ) ) ;
#21 = ORGANIZATION ( 'NEURÈENÝ', 'NEURÈENÝ', '' ) ;
#22 = CARTESIAN_POINT ( 'NONE',  ( 0.000000000000000000, 0.000000000000000000, 800.0000000000000000 ) ) ;
#23 = CYLINDRICAL_SURFACE ( 'NONE', #179, 5.000000000000000000 ) ;
#24 = ORIENTED_EDGE ( 'NONE', *, *, #173, .F. ) ;
#25 = APPROVAL_STATUS ( 'not_yet_approved' ) ;
#26 = APPROVAL_PERSON_ORGANIZATION ( #116, #130, #181 ) ;
#27 = LINE ( 'NONE', #166, #43 ) ;
#28 = DIRECTION ( 'NONE',  ( 0.000000000000000000, 0.000000000000000000, 1.000000000000000000 ) ) ;
#29 = SHAPE_DEFINITION_REPRESENTATION ( #18, #53 ) ;
#30 = DIRECTION ( 'NONE',  ( -1.000000000000000000, 0.000000000000000000, 0.000000000000000000 ) ) ;
#31 = AXIS2_PLACEMENT_3D ( 'NONE', #6, #146, #245 ) ;
#32 = CC_DESIGN_PERSON_AND_ORGANIZATION_ASSIGNMENT ( #203, #69, ( #132 ) ) ;
#33 = APPROVAL ( #42, 'NEURÈENÝ' ) ;
#34 = DIRECTION ( 'NONE',  ( 1.000000000000000000, 0.000000000000000000, -0.000000000000000000 ) ) ;
#35 = AXIS2_PLACEMENT_3D ( 'NONE', #239, #59, #97 ) ;
#36 = ADVANCED_FACE ( 'NONE', ( #131 ), #216, .F. ) ;
#37 = FACE_OUTER_BOUND ( 'NONE', #178, .T. ) ;
#38 = CC_DESIGN_PERSON_AND_ORGANIZATION_ASSIGNMENT ( #228, #119, ( #132 ) ) ;
#39 = DIRECTION ( 'NONE',  ( 1.000000000000000000, 0.000000000000000000, 0.000000000000000000 ) ) ;
#40 = DIRECTION ( 'NONE',  ( 1.000000000000000000, 0.000000000000000000, 0.000000000000000000 ) ) ;
#41 = EDGE_LOOP ( 'NONE', ( #9, #86 ) ) ;
#42 = APPROVAL_STATUS ( 'not_yet_approved' ) ;
#43 = VECTOR ( 'NONE', #177, 1000.000000000000000 ) ;
#44 = EDGE_LOOP ( 'NONE', ( #139, #82 ) ) ;
#45 = VERTEX_POINT ( 'NONE', #192 ) ;
#46 = PLANE ( 'NONE',  #54 ) ;
#47 = EDGE_LOOP ( 'NONE', ( #121, #67, #50, #210 ) ) ;
#48 = CALENDAR_DATE ( 2023, 13, 2 ) ;
#49 = CYLINDRICAL_SURFACE ( 'NONE', #217, 5.000000000000000000 ) ;
#50 = ORIENTED_EDGE ( 'NONE', *, *, #14, .T. ) ;
#51 = CIRCLE ( 'NONE', #35, 5.000000000000000000 ) ;
#52 = EDGE_CURVE ( 'NONE', #142, #45, #74, .T. ) ;
#53 = ADVANCED_BREP_SHAPE_REPRESENTATION ( '72f6', ( #15, #191 ), #12 ) ;
#54 = AXIS2_PLACEMENT_3D ( 'NONE', #229, #8, #240 ) ;
#55 = DIRECTION ( 'NONE',  ( -1.000000000000000000, 0.000000000000000000, 0.000000000000000000 ) ) ;
#56 = CARTESIAN_POINT ( 'NONE',  ( 5.000000000000000000, 6.123233995736766282E-16, 3.000000000000000000 ) ) ;
#57 = CIRCLE ( 'NONE', #231, 2.500000000000000000 ) ;
#58 = CARTESIAN_POINT ( 'NONE',  ( 0.000000000000000000, 0.000000000000000000, 800.0000000000000000 ) ) ;
#59 = DIRECTION ( 'NONE',  ( 0.000000000000000000, 0.000000000000000000, 1.000000000000000000 ) ) ;
#60 = EDGE_CURVE ( 'NONE', #183, #160, #235, .T. ) ;
#61 = CIRCLE ( 'NONE', #100, 5.000000000000000000 ) ;
#62 = ORIENTED_EDGE ( 'NONE', *, *, #60, .F. ) ;
#63 = APPROVAL_ROLE ( '' ) ;
#64 = CARTESIAN_POINT ( 'NONE',  ( 0.000000000000000000, 0.000000000000000000, 3.000000000000000000 ) ) ;
#65 = ORIENTED_EDGE ( 'NONE', *, *, #252, .T. ) ;
#66 = APPROVAL_DATE_TIME ( #241, #130 ) ;
#67 = ORIENTED_EDGE ( 'NONE', *, *, #206, .F. ) ;
#68 = EDGE_LOOP ( 'NONE', ( #205, #7 ) ) ;
#69 = PERSON_AND_ORGANIZATION_ROLE ( 'design_supplier' ) ;
#70 = CARTESIAN_POINT ( 'NONE',  ( -2.500000000000000000, 0.000000000000000000, 3.000000000000000000 ) ) ;
#71 = ORIENTED_EDGE ( 'NONE', *, *, #173, .T. ) ;
#72 =( NAMED_UNIT ( * ) SI_UNIT ( $, .STERADIAN. ) SOLID_ANGLE_UNIT ( ) );
#73 = ORIENTED_EDGE ( 'NONE', *, *, #91, .T. ) ;
#74 = CIRCLE ( 'NONE', #136, 2.500000000000000000 ) ;
#75 = CC_DESIGN_PERSON_AND_ORGANIZATION_ASSIGNMENT ( #80, #137, ( #133 ) ) ;
#76 = FACE_OUTER_BOUND ( 'NONE', #68, .T. ) ;
#77 = CARTESIAN_POINT ( 'NONE',  ( 0.000000000000000000, 0.000000000000000000, 800.0000000000000000 ) ) ;
#78 = PRODUCT_DEFINITION ( 'NEZNÁMÝ', '', #132, #92 ) ;
#79 = LOCAL_TIME ( 15, 36, 16.00000000000000000, #5 ) ;
#80 = PERSON_AND_ORGANIZATION ( #202, #21 ) ;
#81 = CARTESIAN_POINT ( 'NONE',  ( 0.000000000000000000, 0.000000000000000000, 3.000000000000000000 ) ) ;
#82 = ORIENTED_EDGE ( 'NONE', *, *, #252, .F. ) ;
#83 = EDGE_LOOP ( 'NONE', ( #243, #147 ) ) ;
#84 = CALENDAR_DATE ( 2023, 13, 2 ) ;
#85 = DIRECTION ( 'NONE',  ( 1.000000000000000000, 0.000000000000000000, -0.000000000000000000 ) ) ;
#86 = ORIENTED_EDGE ( 'NONE', *, *, #195, .T. ) ;
#87 = APPROVAL_DATE_TIME ( #207, #33 ) ;
#88 = DIRECTION ( 'NONE',  ( -0.000000000000000000, -0.000000000000000000, -1.000000000000000000 ) ) ;
#89 = PERSON_AND_ORGANIZATION ( #202, #21 ) ;
#90 = DIRECTION ( 'NONE',  ( 1.000000000000000000, 0.000000000000000000, 0.000000000000000000 ) ) ;
#91 = EDGE_CURVE ( 'NONE', #142, #99, #94, .T. ) ;
#92 = DESIGN_CONTEXT ( 'detailed design', #134, 'design' ) ;
#93 = CIRCLE ( 'NONE', #201, 2.500000000000000000 ) ;
#94 = LINE ( 'NONE', #255, #188 ) ;
#95 = CARTESIAN_POINT ( 'NONE',  ( 0.000000000000000000, 0.000000000000000000, 0.000000000000000000 ) ) ;
#96 = LOCAL_TIME ( 15, 36, 16.00000000000000000, #226 ) ;
#97 = DIRECTION ( 'NONE',  ( 1.000000000000000000, 0.000000000000000000, 0.000000000000000000 ) ) ;
#98 = CYLINDRICAL_SURFACE ( 'NONE', #253, 2.500000000000000000 ) ;
#99 = VERTEX_POINT ( 'NONE', #113 ) ;
#100 = AXIS2_PLACEMENT_3D ( 'NONE', #11, #209, #40 ) ;
#101 = SECURITY_CLASSIFICATION_LEVEL ( 'unclassified' ) ;
#102 = FACE_OUTER_BOUND ( 'NONE', #143, .T. ) ;
#103 = ORIENTED_EDGE ( 'NONE', *, *, #230, .F. ) ;
#104 = PERSON_AND_ORGANIZATION ( #202, #21 ) ;
#105 = DIRECTION ( 'NONE',  ( 0.000000000000000000, 0.000000000000000000, 1.000000000000000000 ) ) ;
#106 = VERTEX_POINT ( 'NONE', #174 ) ;
#107 = VECTOR ( 'NONE', #218, 1000.000000000000000 ) ;
#108 = FACE_OUTER_BOUND ( 'NONE', #47, .T. ) ;
#109 = ADVANCED_FACE ( 'NONE', ( #76 ), #237, .T. ) ;
#110 = APPROVAL_DATE_TIME ( #125, #161 ) ;
#111 = CLOSED_SHELL ( 'NONE', ( #16, #158, #154, #118, #36, #170, #109 ) ) ;
#112 = CC_DESIGN_APPROVAL ( #130, ( #132 ) ) ;
#113 = CARTESIAN_POINT ( 'NONE',  ( 2.500000000000000000, 3.061616997868383141E-16, 3.000000000000000000 ) ) ;
#114 = CIRCLE ( 'NONE', #127, 5.000000000000000000 ) ;
#115 = VERTEX_POINT ( 'NONE', #70 ) ;
#116 = PERSON_AND_ORGANIZATION ( #202, #21 ) ;
#117 = CARTESIAN_POINT ( 'NONE',  ( 0.000000000000000000, 0.000000000000000000, 3.000000000000000000 ) ) ;
#118 = ADVANCED_FACE ( 'NONE', ( #141, #242 ), #46, .T. ) ;
#119 = PERSON_AND_ORGANIZATION_ROLE ( 'creator' ) ;
#120 =( NAMED_UNIT ( * ) PLANE_ANGLE_UNIT ( ) SI_UNIT ( $, .RADIAN. ) );
#121 = ORIENTED_EDGE ( 'NONE', *, *, #91, .F. ) ;
#122 = CARTESIAN_POINT ( 'NONE',  ( 5.000000000000000000, 6.123233995736766282E-16, 0.000000000000000000 ) ) ;
#123 = COORDINATED_UNIVERSAL_TIME_OFFSET ( 1, 0, .AHEAD. ) ;
#124 = EDGE_CURVE ( 'NONE', #99, #115, #93, .T. ) ;
#125 = DATE_AND_TIME ( #48, #2 ) ;
#126 = DIRECTION ( 'NONE',  ( -0.000000000000000000, -0.000000000000000000, -1.000000000000000000 ) ) ;
#127 = AXIS2_PLACEMENT_3D ( 'NONE', #81, #163, #221 ) ;
#128 = DATE_AND_TIME ( #211, #194 ) ;
#129 = VECTOR ( 'NONE', #220, 1000.000000000000000 ) ;
#130 = APPROVAL ( #25, 'NEURÈENÝ' ) ;
#131 = FACE_OUTER_BOUND ( 'NONE', #44, .T. ) ;
#132 = PRODUCT_DEFINITION_FORMATION_WITH_SPECIFIED_SOURCE ( 'LIBOVOLNÝ', '', #133, .NOT_KNOWN. ) ;
#133 = PRODUCT ( '72f6', '72f6', '', ( #148 ) ) ;
#134 = APPLICATION_CONTEXT ( 'configuration controlled 3d designs of mechanical parts and assemblies' ) ;
#135 = CARTESIAN_POINT ( 'NONE',  ( -2.500000000000000000, 0.000000000000000000, 800.0000000000000000 ) ) ;
#136 = AXIS2_PLACEMENT_3D ( 'NONE', #77, #159, #19 ) ;
#137 = PERSON_AND_ORGANIZATION_ROLE ( 'design_owner' ) ;
#138 = DIRECTION ( 'NONE',  ( 1.000000000000000000, 0.000000000000000000, 0.000000000000000000 ) ) ;
#139 = ORIENTED_EDGE ( 'NONE', *, *, #4, .F. ) ;
#140 = CARTESIAN_POINT ( 'NONE',  ( 0.000000000000000000, 0.000000000000000000, 0.000000000000000000 ) ) ;
#141 = FACE_BOUND ( 'NONE', #83, .T. ) ;
#142 = VERTEX_POINT ( 'NONE', #169 ) ;
#143 = EDGE_LOOP ( 'NONE', ( #222, #200, #65, #24 ) ) ;
#144 = CC_DESIGN_APPROVAL ( #33, ( #78 ) ) ;
#145 = PERSON_AND_ORGANIZATION_ROLE ( 'classification_officer' ) ;
#146 = DIRECTION ( 'NONE',  ( 0.000000000000000000, 0.000000000000000000, 1.000000000000000000 ) ) ;
#147 = ORIENTED_EDGE ( 'NONE', *, *, #124, .F. ) ;
#148 = MECHANICAL_CONTEXT ( 'NONE', #172, 'mechanical' ) ;
#149 =( LENGTH_UNIT ( ) NAMED_UNIT ( * ) SI_UNIT ( .MILLI., .METRE. ) );
#150 = ORIENTED_EDGE ( 'NONE', *, *, #124, .T. ) ;
#151 = CC_DESIGN_SECURITY_CLASSIFICATION ( #213, ( #132 ) ) ;
#152 = DATE_TIME_ROLE ( 'classification_date' ) ;
#153 = AXIS2_PLACEMENT_3D ( 'NONE', #22, #20, #55 ) ;
#154 = ADVANCED_FACE ( 'NONE', ( #227 ), #49, .T. ) ;
#155 = DIRECTION ( 'NONE',  ( 0.000000000000000000, 0.000000000000000000, 1.000000000000000000 ) ) ;
#156 = CC_DESIGN_APPROVAL ( #161, ( #213 ) ) ;
#157 = AXIS2_PLACEMENT_3D ( 'NONE', #58, #182, #85 ) ;
#158 = ADVANCED_FACE ( 'NONE', ( #102 ), #23, .T. ) ;
#159 = DIRECTION ( 'NONE',  ( 0.000000000000000000, 0.000000000000000000, 1.000000000000000000 ) ) ;
#160 = VERTEX_POINT ( 'NONE', #122 ) ;
#161 = APPROVAL ( #215, 'NEURÈENÝ' ) ;
#162 = PERSON_AND_ORGANIZATION ( #202, #21 ) ;
#163 = DIRECTION ( 'NONE',  ( 0.000000000000000000, 0.000000000000000000, 1.000000000000000000 ) ) ;
#164 = VERTEX_POINT ( 'NONE', #248 ) ;
#165 = DIRECTION ( 'NONE',  ( -1.000000000000000000, 0.000000000000000000, 0.000000000000000000 ) ) ;
#166 = CARTESIAN_POINT ( 'NONE',  ( -5.000000000000000000, 0.000000000000000000, 3.000000000000000000 ) ) ;
#167 = ORIENTED_EDGE ( 'NONE', *, *, #14, .F. ) ;
#168 = DATE_AND_TIME ( #244, #246 ) ;
#169 = CARTESIAN_POINT ( 'NONE',  ( 2.500000000000000000, 3.061616997868383141E-16, 800.0000000000000000 ) ) ;
#170 = ADVANCED_FACE ( 'NONE', ( #108 ), #98, .T. ) ;
#171 = APPROVAL_PERSON_ORGANIZATION ( #232, #161, #208 ) ;
#172 = APPLICATION_CONTEXT ( 'configuration controlled 3d designs of mechanical parts and assemblies' ) ;
#173 = EDGE_CURVE ( 'NONE', #106, #164, #27, .T. ) ;
#174 = CARTESIAN_POINT ( 'NONE',  ( -5.000000000000000000, 0.000000000000000000, 3.000000000000000000 ) ) ;
#175 = LINE ( 'NONE', #135, #129 ) ;
#176 = CC_DESIGN_PERSON_AND_ORGANIZATION_ASSIGNMENT ( #89, #145, ( #213 ) ) ;
#177 = DIRECTION ( 'NONE',  ( -0.000000000000000000, -0.000000000000000000, -1.000000000000000000 ) ) ;
#178 = EDGE_LOOP ( 'NONE', ( #180, #73, #150, #167 ) ) ;
#179 = AXIS2_PLACEMENT_3D ( 'NONE', #204, #185, #30 ) ;
#180 = ORIENTED_EDGE ( 'NONE', *, *, #52, .F. ) ;
#181 = APPROVAL_ROLE ( '' ) ;
#182 = DIRECTION ( 'NONE',  ( 0.000000000000000000, 0.000000000000000000, 1.000000000000000000 ) ) ;
#183 = VERTEX_POINT ( 'NONE', #1 ) ;
#184 = CALENDAR_DATE ( 2023, 13, 2 ) ;
#185 = DIRECTION ( 'NONE',  ( -0.000000000000000000, -0.000000000000000000, -1.000000000000000000 ) ) ;
#186 = PERSON_AND_ORGANIZATION_ROLE ( 'creator' ) ;
#187 = DIRECTION ( 'NONE',  ( 0.000000000000000000, 0.000000000000000000, 1.000000000000000000 ) ) ;
#188 = VECTOR ( 'NONE', #238, 1000.000000000000000 ) ;
#189 = CARTESIAN_POINT ( 'NONE',  ( 0.000000000000000000, 0.000000000000000000, 3.000000000000000000 ) ) ;
#190 = UNCERTAINTY_MEASURE_WITH_UNIT (LENGTH_MEASURE( 1.000000000000000082E-05 ), #149, 'distance_accuracy_value', 'NONE');
#191 = AXIS2_PLACEMENT_3D ( 'NONE', #140, #198, #39 ) ;
#192 = CARTESIAN_POINT ( 'NONE',  ( -2.500000000000000000, 0.000000000000000000, 800.0000000000000000 ) ) ;
#193 = CYLINDRICAL_SURFACE ( 'NONE', #153, 2.500000000000000000 ) ;
#194 = LOCAL_TIME ( 15, 36, 16.00000000000000000, #10 ) ;
#195 = EDGE_CURVE ( 'NONE', #183, #106, #233, .T. ) ;
#196 = CARTESIAN_POINT ( 'NONE',  ( 0.000000000000000000, 0.000000000000000000, 800.0000000000000000 ) ) ;
#197 = EDGE_LOOP ( 'NONE', ( #62, #103, #71, #3 ) ) ;
#198 = DIRECTION ( 'NONE',  ( 0.000000000000000000, 0.000000000000000000, 1.000000000000000000 ) ) ;
#199 = DIRECTION ( 'NONE',  ( 1.000000000000000000, 0.000000000000000000, 0.000000000000000000 ) ) ;
#200 = ORIENTED_EDGE ( 'NONE', *, *, #60, .T. ) ;
#201 = AXIS2_PLACEMENT_3D ( 'NONE', #189, #28, #90 ) ;
#202 = PERSON ( 'NEURÈENÝ', 'NEURÈENÝ', 'NEURÈENÝ', ('NEURÈENÝ'), ('NEURÈENÝ'), ('NEURÈENÝ') ) ;
#203 = PERSON_AND_ORGANIZATION ( #202, #21 ) ;
#204 = CARTESIAN_POINT ( 'NONE',  ( 0.000000000000000000, 0.000000000000000000, 3.000000000000000000 ) ) ;
#205 = ORIENTED_EDGE ( 'NONE', *, *, #206, .T. ) ;
#206 = EDGE_CURVE ( 'NONE', #45, #142, #236, .T. ) ;
#207 = DATE_AND_TIME ( #184, #96 ) ;
#208 = APPROVAL_ROLE ( '' ) ;
#209 = DIRECTION ( 'NONE',  ( 0.000000000000000000, 0.000000000000000000, 1.000000000000000000 ) ) ;
#210 = ORIENTED_EDGE ( 'NONE', *, *, #254, .T. ) ;
#211 = CALENDAR_DATE ( 2023, 13, 2 ) ;
#212 = DIRECTION ( 'NONE',  ( -1.000000000000000000, 0.000000000000000000, 0.000000000000000000 ) ) ;
#213 = SECURITY_CLASSIFICATION ( '', '', #101 ) ;
#214 = CC_DESIGN_DATE_AND_TIME_ASSIGNMENT ( #128, #152, ( #213 ) ) ;
#215 = APPROVAL_STATUS ( 'not_yet_approved' ) ;
#216 = PLANE ( 'NONE',  #219 ) ;
#217 = AXIS2_PLACEMENT_3D ( 'NONE', #64, #126, #212 ) ;
#218 = DIRECTION ( 'NONE',  ( -0.000000000000000000, -0.000000000000000000, -1.000000000000000000 ) ) ;
#219 = AXIS2_PLACEMENT_3D ( 'NONE', #95, #155, #34 ) ;
#220 = DIRECTION ( 'NONE',  ( -0.000000000000000000, -0.000000000000000000, -1.000000000000000000 ) ) ;
#221 = DIRECTION ( 'NONE',  ( 1.000000000000000000, 0.000000000000000000, 0.000000000000000000 ) ) ;
#222 = ORIENTED_EDGE ( 'NONE', *, *, #195, .F. ) ;
#223 = DATE_TIME_ROLE ( 'creation_date' ) ;
#224 = CARTESIAN_POINT ( 'NONE',  ( 0.000000000000000000, 0.000000000000000000, 800.0000000000000000 ) ) ;
#225 = PRODUCT_RELATED_PRODUCT_CATEGORY ( 'detail', '', ( #133 ) ) ;
#226 = COORDINATED_UNIVERSAL_TIME_OFFSET ( 1, 0, .AHEAD. ) ;
#227 = FACE_OUTER_BOUND ( 'NONE', #197, .T. ) ;
#228 = PERSON_AND_ORGANIZATION ( #202, #21 ) ;
#229 = CARTESIAN_POINT ( 'NONE',  ( 0.000000000000000000, 0.000000000000000000, 3.000000000000000000 ) ) ;
#230 = EDGE_CURVE ( 'NONE', #106, #183, #114, .T. ) ;
#231 = AXIS2_PLACEMENT_3D ( 'NONE', #117, #187, #199 ) ;
#232 = PERSON_AND_ORGANIZATION ( #202, #21 ) ;
#233 = CIRCLE ( 'NONE', #31, 5.000000000000000000 ) ;
#234 = CC_DESIGN_DATE_AND_TIME_ASSIGNMENT ( #168, #223, ( #78 ) ) ;
#235 = LINE ( 'NONE', #56, #107 ) ;
#236 = CIRCLE ( 'NONE', #17, 2.500000000000000000 ) ;
#237 = PLANE ( 'NONE',  #157 ) ;
#238 = DIRECTION ( 'NONE',  ( -0.000000000000000000, -0.000000000000000000, -1.000000000000000000 ) ) ;
#239 = CARTESIAN_POINT ( 'NONE',  ( 0.000000000000000000, 0.000000000000000000, 0.000000000000000000 ) ) ;
#240 = DIRECTION ( 'NONE',  ( 1.000000000000000000, 0.000000000000000000, -0.000000000000000000 ) ) ;
#241 = DATE_AND_TIME ( #84, #79 ) ;
#242 = FACE_OUTER_BOUND ( 'NONE', #41, .T. ) ;
#243 = ORIENTED_EDGE ( 'NONE', *, *, #254, .F. ) ;
#244 = CALENDAR_DATE ( 2023, 13, 2 ) ;
#245 = DIRECTION ( 'NONE',  ( 1.000000000000000000, 0.000000000000000000, 0.000000000000000000 ) ) ;
#246 = LOCAL_TIME ( 15, 36, 16.00000000000000000, #123 ) ;
#247 = APPLICATION_PROTOCOL_DEFINITION ( 'international standard', 'config_control_design', 1994, #134 ) ;
#248 = CARTESIAN_POINT ( 'NONE',  ( -5.000000000000000000, 0.000000000000000000, 0.000000000000000000 ) ) ;
#249 = CC_DESIGN_PERSON_AND_ORGANIZATION_ASSIGNMENT ( #104, #186, ( #78 ) ) ;
#250 = APPROVAL_PERSON_ORGANIZATION ( #162, #33, #63 ) ;
#251 = COORDINATED_UNIVERSAL_TIME_OFFSET ( 1, 0, .AHEAD. ) ;
#252 = EDGE_CURVE ( 'NONE', #160, #164, #61, .T. ) ;
#253 = AXIS2_PLACEMENT_3D ( 'NONE', #196, #88, #165 ) ;
#254 = EDGE_CURVE ( 'NONE', #115, #99, #57, .T. ) ;
#255 = CARTESIAN_POINT ( 'NONE',  ( 2.500000000000000000, 3.061616997868383141E-16, 800.0000000000000000 ) ) ;
ENDSEC;
END-ISO-10303-21;
