ISO-10303-21;
HEADER;
FILE_DESCRIPTION (( 'STEP AP203' ),
    '1' );
FILE_NAME ('8c95.STEP',
    '2023-02-13T15:36:18',
    ( '' ),
    ( '' ),
    'SwSTEP 2.0',
    'SolidWorks 2019',
    '' );
FILE_SCHEMA (( 'CONFIG_CONTROL_DESIGN' ));
ENDSEC;

DATA;
#1 = PERSON_AND_ORGANIZATION ( #244, #225 ) ;
#2 = EDGE_CURVE ( 'NONE', #210, #64, #173, .T. ) ;
#3 = CIRCLE ( 'NONE', #197, 1.600000000000000089 ) ;
#4 = CC_DESIGN_PERSON_AND_ORGANIZATION_ASSIGNMENT ( #55, #255, ( #59 ) ) ;
#5 = CARTESIAN_POINT ( 'NONE',  ( 0.000000000000000000, 0.000000000000000000, 125.0000000000000000 ) ) ;
#6 = LOCAL_TIME ( 16, 36, 18.00000000000000000, #11 ) ;
#7 = CARTESIAN_POINT ( 'NONE',  ( -1.600000000000000089, 0.000000000000000000, 3.000000000000000000 ) ) ;
#8 = VECTOR ( 'NONE', #190, 1000.000000000000000 ) ;
#9 = CARTESIAN_POINT ( 'NONE',  ( 0.000000000000000000, 0.000000000000000000, 3.000000000000000000 ) ) ;
#10 = CARTESIAN_POINT ( 'NONE',  ( -3.000000000000000444, 0.000000000000000000, 3.000000000000000000 ) ) ;
#11 = COORDINATED_UNIVERSAL_TIME_OFFSET ( 1, 0, .AHEAD. ) ;
#12 = COORDINATED_UNIVERSAL_TIME_OFFSET ( 1, 0, .AHEAD. ) ;
#13 = DIRECTION ( 'NONE',  ( -0.000000000000000000, -0.000000000000000000, -1.000000000000000000 ) ) ;
#14 = CALENDAR_DATE ( 2023, 13, 2 ) ;
#15 = CIRCLE ( 'NONE', #195, 3.000000000000000444 ) ;
#16 = VECTOR ( 'NONE', #50, 1000.000000000000000 ) ;
#17 = CC_DESIGN_PERSON_AND_ORGANIZATION_ASSIGNMENT ( #58, #134, ( #115 ) ) ;
#18 = ORIENTED_EDGE ( 'NONE', *, *, #38, .T. ) ;
#19 = COORDINATED_UNIVERSAL_TIME_OFFSET ( 1, 0, .AHEAD. ) ;
#20 = CARTESIAN_POINT ( 'NONE',  ( 0.000000000000000000, 0.000000000000000000, 3.000000000000000000 ) ) ;
#21 = ADVANCED_FACE ( 'NONE', ( #163 ), #143, .T. ) ;
#22 = PLANE ( 'NONE',  #47 ) ;
#23 = LINE ( 'NONE', #184, #217 ) ;
#24 = AXIS2_PLACEMENT_3D ( 'NONE', #216, #157, #62 ) ;
#25 = DIRECTION ( 'NONE',  ( 0.000000000000000000, 0.000000000000000000, 1.000000000000000000 ) ) ;
#26 = ORIENTED_EDGE ( 'NONE', *, *, #120, .T. ) ;
#27 = DIRECTION ( 'NONE',  ( 0.000000000000000000, 0.000000000000000000, 1.000000000000000000 ) ) ;
#28 = DIRECTION ( 'NONE',  ( -1.000000000000000000, 0.000000000000000000, 0.000000000000000000 ) ) ;
#29 = CARTESIAN_POINT ( 'NONE',  ( -1.600000000000000089, 0.000000000000000000, 125.0000000000000000 ) ) ;
#30 = ORIENTED_EDGE ( 'NONE', *, *, #218, .T. ) ;
#31 = ORIENTED_EDGE ( 'NONE', *, *, #38, .F. ) ;
#32 = FACE_OUTER_BOUND ( 'NONE', #148, .T. ) ;
#33 = DIRECTION ( 'NONE',  ( 1.000000000000000000, 0.000000000000000000, 0.000000000000000000 ) ) ;
#34 = EDGE_LOOP ( 'NONE', ( #57, #124, #30, #45 ) ) ;
#35 = CARTESIAN_POINT ( 'NONE',  ( 0.000000000000000000, 0.000000000000000000, 3.000000000000000000 ) ) ;
#36 = APPROVAL_DATE_TIME ( #40, #194 ) ;
#37 = VERTEX_POINT ( 'NONE', #230 ) ;
#38 = EDGE_CURVE ( 'NONE', #64, #37, #161, .T. ) ;
#39 = LOCAL_TIME ( 16, 36, 18.00000000000000000, #95 ) ;
#40 = DATE_AND_TIME ( #98, #246 ) ;
#41 = EDGE_LOOP ( 'NONE', ( #250, #239, #26, #211 ) ) ;
#42 = APPROVAL_PERSON_ORGANIZATION ( #228, #194, #48 ) ;
#43 = APPLICATION_CONTEXT ( 'configuration controlled 3d designs of mechanical parts and assemblies' ) ;
#44 = APPROVAL ( #233, 'NEURÈENÝ' ) ;
#45 = ORIENTED_EDGE ( 'NONE', *, *, #120, .F. ) ;
#46 = LOCAL_TIME ( 16, 36, 18.00000000000000000, #12 ) ;
#47 = AXIS2_PLACEMENT_3D ( 'NONE', #245, #159, #131 ) ;
#48 = APPROVAL_ROLE ( '' ) ;
#49 = APPROVAL_ROLE ( '' ) ;
#50 = DIRECTION ( 'NONE',  ( -0.000000000000000000, -0.000000000000000000, -1.000000000000000000 ) ) ;
#51 = CALENDAR_DATE ( 2023, 13, 2 ) ;
#52 = FACE_OUTER_BOUND ( 'NONE', #152, .T. ) ;
#53 = CIRCLE ( 'NONE', #155, 1.600000000000000089 ) ;
#54 = APPROVAL_DATE_TIME ( #77, #44 ) ;
#55 = PERSON_AND_ORGANIZATION ( #244, #225 ) ;
#56 = CARTESIAN_POINT ( 'NONE',  ( 0.000000000000000000, 0.000000000000000000, 3.000000000000000000 ) ) ;
#57 = ORIENTED_EDGE ( 'NONE', *, *, #222, .F. ) ;
#58 = PERSON_AND_ORGANIZATION ( #244, #225 ) ;
#59 = PRODUCT_DEFINITION ( 'NEZNÁMÝ', '', #115, #240 ) ;
#60 = PERSON_AND_ORGANIZATION ( #244, #225 ) ;
#61 = ORIENTED_EDGE ( 'NONE', *, *, #2, .F. ) ;
#62 = DIRECTION ( 'NONE',  ( 1.000000000000000000, 0.000000000000000000, 0.000000000000000000 ) ) ;
#63 = AXIS2_PLACEMENT_3D ( 'NONE', #201, #182, #100 ) ;
#64 = VERTEX_POINT ( 'NONE', #248 ) ;
#65 = DIRECTION ( 'NONE',  ( -1.000000000000000000, 0.000000000000000000, 0.000000000000000000 ) ) ;
#66 = CC_DESIGN_PERSON_AND_ORGANIZATION_ASSIGNMENT ( #221, #142, ( #224 ) ) ;
#67 = FACE_BOUND ( 'NONE', #113, .T. ) ;
#68 = PRODUCT_DEFINITION_SHAPE ( 'NONE', 'NONE',  #59 ) ;
#69 = CARTESIAN_POINT ( 'NONE',  ( -1.600000000000000089, 0.000000000000000000, 125.0000000000000000 ) ) ;
#70 = CC_DESIGN_DATE_AND_TIME_ASSIGNMENT ( #74, #192, ( #118 ) ) ;
#71 = EDGE_LOOP ( 'NONE', ( #31, #61, #175, #121 ) ) ;
#72 = ADVANCED_FACE ( 'NONE', ( #110 ), #132, .T. ) ;
#73 = DIRECTION ( 'NONE',  ( -0.000000000000000000, -0.000000000000000000, -1.000000000000000000 ) ) ;
#74 = DATE_AND_TIME ( #14, #6 ) ;
#75 = ORIENTED_EDGE ( 'NONE', *, *, #202, .T. ) ;
#76 = VERTEX_POINT ( 'NONE', #167 ) ;
#77 = DATE_AND_TIME ( #170, #39 ) ;
#78 = VERTEX_POINT ( 'NONE', #213 ) ;
#79 = AXIS2_PLACEMENT_3D ( 'NONE', #189, #105, #33 ) ;
#80 = DIRECTION ( 'NONE',  ( 1.000000000000000000, 0.000000000000000000, 0.000000000000000000 ) ) ;
#81 = APPLICATION_PROTOCOL_DEFINITION ( 'international standard', 'config_control_design', 1994, #43 ) ;
#82 = CIRCLE ( 'NONE', #114, 1.600000000000000089 ) ;
#83 = DIRECTION ( 'NONE',  ( -0.000000000000000000, -0.000000000000000000, -1.000000000000000000 ) ) ;
#84 = FACE_OUTER_BOUND ( 'NONE', #71, .T. ) ;
#85 = DIRECTION ( 'NONE',  ( 1.000000000000000000, 0.000000000000000000, -0.000000000000000000 ) ) ;
#86 = ORIENTED_EDGE ( 'NONE', *, *, #200, .F. ) ;
#87 = AXIS2_PLACEMENT_3D ( 'NONE', #209, #139, #149 ) ;
#88 =( NAMED_UNIT ( * ) PLANE_ANGLE_UNIT ( ) SI_UNIT ( $, .RADIAN. ) );
#89 =( GEOMETRIC_REPRESENTATION_CONTEXT ( 3 ) GLOBAL_UNCERTAINTY_ASSIGNED_CONTEXT ( ( #249 ) ) GLOBAL_UNIT_ASSIGNED_CONTEXT ( ( #106, #88, #137 ) ) REPRESENTATION_CONTEXT ( 'NONE', 'WORKASPACE' ) );
#90 = CARTESIAN_POINT ( 'NONE',  ( 0.000000000000000000, 0.000000000000000000, 125.0000000000000000 ) ) ;
#91 = CARTESIAN_POINT ( 'NONE',  ( 0.000000000000000000, 0.000000000000000000, 3.000000000000000000 ) ) ;
#92 = APPROVAL_DATE_TIME ( #214, #97 ) ;
#93 = DIRECTION ( 'NONE',  ( -1.000000000000000000, 0.000000000000000000, 0.000000000000000000 ) ) ;
#94 = EDGE_CURVE ( 'NONE', #78, #76, #180, .T. ) ;
#95 = COORDINATED_UNIVERSAL_TIME_OFFSET ( 1, 0, .AHEAD. ) ;
#96 = APPLICATION_CONTEXT ( 'configuration controlled 3d designs of mechanical parts and assemblies' ) ;
#97 = APPROVAL ( #241, 'NEURÈENÝ' ) ;
#98 = CALENDAR_DATE ( 2023, 13, 2 ) ;
#99 = CC_DESIGN_PERSON_AND_ORGANIZATION_ASSIGNMENT ( #165, #144, ( #115 ) ) ;
#100 = DIRECTION ( 'NONE',  ( 1.000000000000000000, 0.000000000000000000, -0.000000000000000000 ) ) ;
#101 = EDGE_CURVE ( 'NONE', #210, #122, #117, .T. ) ;
#102 = CARTESIAN_POINT ( 'NONE',  ( 3.000000000000000444, 3.673940397442060361E-16, 0.000000000000000000 ) ) ;
#103 = PLANE ( 'NONE',  #63 ) ;
#104 = CC_DESIGN_SECURITY_CLASSIFICATION ( #118, ( #115 ) ) ;
#105 = DIRECTION ( 'NONE',  ( 0.000000000000000000, 0.000000000000000000, 1.000000000000000000 ) ) ;
#106 =( LENGTH_UNIT ( ) NAMED_UNIT ( * ) SI_UNIT ( .MILLI., .METRE. ) );
#107 = DIRECTION ( 'NONE',  ( 0.000000000000000000, 0.000000000000000000, 1.000000000000000000 ) ) ;
#108 = CARTESIAN_POINT ( 'NONE',  ( 0.000000000000000000, 0.000000000000000000, 3.000000000000000000 ) ) ;
#109 = CYLINDRICAL_SURFACE ( 'NONE', #140, 1.600000000000000089 ) ;
#110 = FACE_OUTER_BOUND ( 'NONE', #41, .T. ) ;
#111 = CARTESIAN_POINT ( 'NONE',  ( 1.600000000000000089, 1.959434878635764737E-16, 125.0000000000000000 ) ) ;
#112 = CC_DESIGN_DATE_AND_TIME_ASSIGNMENT ( #125, #188, ( #59 ) ) ;
#113 = EDGE_LOOP ( 'NONE', ( #196, #242 ) ) ;
#114 = AXIS2_PLACEMENT_3D ( 'NONE', #226, #243, #123 ) ;
#115 = PRODUCT_DEFINITION_FORMATION_WITH_SPECIFIED_SOURCE ( 'LIBOVOLNÝ', '', #224, .NOT_KNOWN. ) ;
#116 = DIRECTION ( 'NONE',  ( -0.000000000000000000, -0.000000000000000000, -1.000000000000000000 ) ) ;
#117 = LINE ( 'NONE', #29, #119 ) ;
#118 = SECURITY_CLASSIFICATION ( '', '', #193 ) ;
#119 = VECTOR ( 'NONE', #183, 1000.000000000000000 ) ;
#120 = EDGE_CURVE ( 'NONE', #78, #185, #141, .T. ) ;
#121 = ORIENTED_EDGE ( 'NONE', *, *, #206, .T. ) ;
#122 = VERTEX_POINT ( 'NONE', #7 ) ;
#123 = DIRECTION ( 'NONE',  ( 1.000000000000000000, 0.000000000000000000, 0.000000000000000000 ) ) ;
#124 = ORIENTED_EDGE ( 'NONE', *, *, #253, .T. ) ;
#125 = DATE_AND_TIME ( #203, #46 ) ;
#126 = CARTESIAN_POINT ( 'NONE',  ( 0.000000000000000000, 0.000000000000000000, 125.0000000000000000 ) ) ;
#127 = AXIS2_PLACEMENT_3D ( 'NONE', #247, #129, #205 ) ;
#128 = CC_DESIGN_APPROVAL ( #194, ( #59 ) ) ;
#129 = DIRECTION ( 'NONE',  ( 0.000000000000000000, 0.000000000000000000, 1.000000000000000000 ) ) ;
#130 = PERSON_AND_ORGANIZATION ( #244, #225 ) ;
#131 = DIRECTION ( 'NONE',  ( 1.000000000000000000, 0.000000000000000000, -0.000000000000000000 ) ) ;
#132 = CYLINDRICAL_SURFACE ( 'NONE', #151, 3.000000000000000444 ) ;
#133 = CYLINDRICAL_SURFACE ( 'NONE', #87, 1.600000000000000089 ) ;
#134 = PERSON_AND_ORGANIZATION_ROLE ( 'creator' ) ;
#135 = ADVANCED_FACE ( 'NONE', ( #231 ), #204, .T. ) ;
#136 = AXIS2_PLACEMENT_3D ( 'NONE', #56, #235, #164 ) ;
#137 =( NAMED_UNIT ( * ) SI_UNIT ( $, .STERADIAN. ) SOLID_ANGLE_UNIT ( ) );
#138 = APPROVAL_STATUS ( 'not_yet_approved' ) ;
#139 = DIRECTION ( 'NONE',  ( -0.000000000000000000, -0.000000000000000000, -1.000000000000000000 ) ) ;
#140 = AXIS2_PLACEMENT_3D ( 'NONE', #90, #73, #65 ) ;
#141 = LINE ( 'NONE', #10, #8 ) ;
#142 = PERSON_AND_ORGANIZATION_ROLE ( 'design_owner' ) ;
#143 = CYLINDRICAL_SURFACE ( 'NONE', #251, 3.000000000000000444 ) ;
#144 = PERSON_AND_ORGANIZATION_ROLE ( 'design_supplier' ) ;
#145 = ADVANCED_FACE ( 'NONE', ( #220 ), #103, .F. ) ;
#146 = CARTESIAN_POINT ( 'NONE',  ( -3.000000000000000444, 0.000000000000000000, 0.000000000000000000 ) ) ;
#147 = COORDINATED_UNIVERSAL_TIME_OFFSET ( 1, 0, .AHEAD. ) ;
#148 = EDGE_LOOP ( 'NONE', ( #207, #237 ) ) ;
#149 = DIRECTION ( 'NONE',  ( -1.000000000000000000, 0.000000000000000000, 0.000000000000000000 ) ) ;
#150 = APPROVAL_PERSON_ORGANIZATION ( #60, #44, #49 ) ;
#151 = AXIS2_PLACEMENT_3D ( 'NONE', #91, #13, #93 ) ;
#152 = EDGE_LOOP ( 'NONE', ( #169, #18, #75, #172 ) ) ;
#153 = AXIS2_PLACEMENT_3D ( 'NONE', #126, #107, #187 ) ;
#154 = ORIENTED_EDGE ( 'NONE', *, *, #238, .T. ) ;
#155 = AXIS2_PLACEMENT_3D ( 'NONE', #35, #176, #80 ) ;
#156 = DIRECTION ( 'NONE',  ( 1.000000000000000000, 0.000000000000000000, 0.000000000000000000 ) ) ;
#157 = DIRECTION ( 'NONE',  ( 0.000000000000000000, 0.000000000000000000, 1.000000000000000000 ) ) ;
#158 = APPROVAL_PERSON_ORGANIZATION ( #1, #97, #177 ) ;
#159 = DIRECTION ( 'NONE',  ( 0.000000000000000000, 0.000000000000000000, 1.000000000000000000 ) ) ;
#160 = CLOSED_SHELL ( 'NONE', ( #191, #21, #72, #162, #145, #178, #135 ) ) ;
#161 = LINE ( 'NONE', #111, #16 ) ;
#162 = ADVANCED_FACE ( 'NONE', ( #67, #32 ), #22, .T. ) ;
#163 = FACE_OUTER_BOUND ( 'NONE', #34, .T. ) ;
#164 = DIRECTION ( 'NONE',  ( 1.000000000000000000, 0.000000000000000000, 0.000000000000000000 ) ) ;
#165 = PERSON_AND_ORGANIZATION ( #244, #225 ) ;
#166 = ADVANCED_BREP_SHAPE_REPRESENTATION ( '8c95', ( #219, #79 ), #89 ) ;
#167 = CARTESIAN_POINT ( 'NONE',  ( 3.000000000000000444, 3.673940397442060361E-16, 3.000000000000000000 ) ) ;
#168 = APPLICATION_PROTOCOL_DEFINITION ( 'international standard', 'config_control_design', 1994, #96 ) ;
#169 = ORIENTED_EDGE ( 'NONE', *, *, #238, .F. ) ;
#170 = CALENDAR_DATE ( 2023, 13, 2 ) ;
#171 = CIRCLE ( 'NONE', #127, 3.000000000000000444 ) ;
#172 = ORIENTED_EDGE ( 'NONE', *, *, #101, .F. ) ;
#173 = CIRCLE ( 'NONE', #153, 1.600000000000000089 ) ;
#174 = ORIENTED_EDGE ( 'NONE', *, *, #2, .T. ) ;
#175 = ORIENTED_EDGE ( 'NONE', *, *, #101, .T. ) ;
#176 = DIRECTION ( 'NONE',  ( 0.000000000000000000, 0.000000000000000000, 1.000000000000000000 ) ) ;
#177 = APPROVAL_ROLE ( '' ) ;
#178 = ADVANCED_FACE ( 'NONE', ( #84 ), #109, .T. ) ;
#179 = CIRCLE ( 'NONE', #24, 3.000000000000000444 ) ;
#180 = CIRCLE ( 'NONE', #136, 3.000000000000000444 ) ;
#181 = DIRECTION ( 'NONE',  ( 0.000000000000000000, 0.000000000000000000, 1.000000000000000000 ) ) ;
#182 = DIRECTION ( 'NONE',  ( 0.000000000000000000, 0.000000000000000000, 1.000000000000000000 ) ) ;
#183 = DIRECTION ( 'NONE',  ( -0.000000000000000000, -0.000000000000000000, -1.000000000000000000 ) ) ;
#184 = CARTESIAN_POINT ( 'NONE',  ( 3.000000000000000444, 3.673940397442060361E-16, 3.000000000000000000 ) ) ;
#185 = VERTEX_POINT ( 'NONE', #146 ) ;
#186 = CC_DESIGN_APPROVAL ( #44, ( #118 ) ) ;
#187 = DIRECTION ( 'NONE',  ( 1.000000000000000000, 0.000000000000000000, 0.000000000000000000 ) ) ;
#188 = DATE_TIME_ROLE ( 'creation_date' ) ;
#189 = CARTESIAN_POINT ( 'NONE',  ( 0.000000000000000000, 0.000000000000000000, 0.000000000000000000 ) ) ;
#190 = DIRECTION ( 'NONE',  ( -0.000000000000000000, -0.000000000000000000, -1.000000000000000000 ) ) ;
#191 = ADVANCED_FACE ( 'NONE', ( #52 ), #133, .T. ) ;
#192 = DATE_TIME_ROLE ( 'classification_date' ) ;
#193 = SECURITY_CLASSIFICATION_LEVEL ( 'unclassified' ) ;
#194 = APPROVAL ( #138, 'NEURÈENÝ' ) ;
#195 = AXIS2_PLACEMENT_3D ( 'NONE', #20, #27, #156 ) ;
#196 = ORIENTED_EDGE ( 'NONE', *, *, #206, .F. ) ;
#197 = AXIS2_PLACEMENT_3D ( 'NONE', #9, #25, #227 ) ;
#198 = LOCAL_TIME ( 16, 36, 18.00000000000000000, #147 ) ;
#199 = AXIS2_PLACEMENT_3D ( 'NONE', #5, #181, #85 ) ;
#200 = EDGE_CURVE ( 'NONE', #185, #215, #179, .T. ) ;
#201 = CARTESIAN_POINT ( 'NONE',  ( 0.000000000000000000, 0.000000000000000000, 0.000000000000000000 ) ) ;
#202 = EDGE_CURVE ( 'NONE', #37, #122, #53, .T. ) ;
#203 = CALENDAR_DATE ( 2023, 13, 2 ) ;
#204 = PLANE ( 'NONE',  #199 ) ;
#205 = DIRECTION ( 'NONE',  ( 1.000000000000000000, 0.000000000000000000, 0.000000000000000000 ) ) ;
#206 = EDGE_CURVE ( 'NONE', #122, #37, #3, .T. ) ;
#207 = ORIENTED_EDGE ( 'NONE', *, *, #94, .T. ) ;
#208 = EDGE_LOOP ( 'NONE', ( #174, #154 ) ) ;
#209 = CARTESIAN_POINT ( 'NONE',  ( 0.000000000000000000, 0.000000000000000000, 125.0000000000000000 ) ) ;
#210 = VERTEX_POINT ( 'NONE', #69 ) ;
#211 = ORIENTED_EDGE ( 'NONE', *, *, #200, .T. ) ;
#212 = SHAPE_DEFINITION_REPRESENTATION ( #68, #166 ) ;
#213 = CARTESIAN_POINT ( 'NONE',  ( -3.000000000000000444, 0.000000000000000000, 3.000000000000000000 ) ) ;
#214 = DATE_AND_TIME ( #51, #198 ) ;
#215 = VERTEX_POINT ( 'NONE', #102 ) ;
#216 = CARTESIAN_POINT ( 'NONE',  ( 0.000000000000000000, 0.000000000000000000, 0.000000000000000000 ) ) ;
#217 = VECTOR ( 'NONE', #83, 1000.000000000000000 ) ;
#218 = EDGE_CURVE ( 'NONE', #215, #185, #171, .T. ) ;
#219 = MANIFOLD_SOLID_BREP ( 'Pøidat vysunutím3', #160 ) ;
#220 = FACE_OUTER_BOUND ( 'NONE', #232, .T. ) ;
#221 = PERSON_AND_ORGANIZATION ( #244, #225 ) ;
#222 = EDGE_CURVE ( 'NONE', #76, #78, #15, .T. ) ;
#223 = CC_DESIGN_PERSON_AND_ORGANIZATION_ASSIGNMENT ( #130, #252, ( #118 ) ) ;
#224 = PRODUCT ( '8c95', '8c95', '', ( #254 ) ) ;
#225 = ORGANIZATION ( 'NEURÈENÝ', 'NEURÈENÝ', '' ) ;
#226 = CARTESIAN_POINT ( 'NONE',  ( 0.000000000000000000, 0.000000000000000000, 125.0000000000000000 ) ) ;
#227 = DIRECTION ( 'NONE',  ( 1.000000000000000000, 0.000000000000000000, 0.000000000000000000 ) ) ;
#228 = PERSON_AND_ORGANIZATION ( #244, #225 ) ;
#229 = PRODUCT_RELATED_PRODUCT_CATEGORY ( 'detail', '', ( #224 ) ) ;
#230 = CARTESIAN_POINT ( 'NONE',  ( 1.600000000000000089, 1.959434878635764737E-16, 3.000000000000000000 ) ) ;
#231 = FACE_OUTER_BOUND ( 'NONE', #208, .T. ) ;
#232 = EDGE_LOOP ( 'NONE', ( #86, #236 ) ) ;
#233 = APPROVAL_STATUS ( 'not_yet_approved' ) ;
#234 = CC_DESIGN_APPROVAL ( #97, ( #115 ) ) ;
#235 = DIRECTION ( 'NONE',  ( 0.000000000000000000, 0.000000000000000000, 1.000000000000000000 ) ) ;
#236 = ORIENTED_EDGE ( 'NONE', *, *, #218, .F. ) ;
#237 = ORIENTED_EDGE ( 'NONE', *, *, #222, .T. ) ;
#238 = EDGE_CURVE ( 'NONE', #64, #210, #82, .T. ) ;
#239 = ORIENTED_EDGE ( 'NONE', *, *, #94, .F. ) ;
#240 = DESIGN_CONTEXT ( 'detailed design', #43, 'design' ) ;
#241 = APPROVAL_STATUS ( 'not_yet_approved' ) ;
#242 = ORIENTED_EDGE ( 'NONE', *, *, #202, .F. ) ;
#243 = DIRECTION ( 'NONE',  ( 0.000000000000000000, 0.000000000000000000, 1.000000000000000000 ) ) ;
#244 = PERSON ( 'NEURÈENÝ', 'NEURÈENÝ', 'NEURÈENÝ', ('NEURÈENÝ'), ('NEURÈENÝ'), ('NEURÈENÝ') ) ;
#245 = CARTESIAN_POINT ( 'NONE',  ( 0.000000000000000000, 0.000000000000000000, 3.000000000000000000 ) ) ;
#246 = LOCAL_TIME ( 16, 36, 18.00000000000000000, #19 ) ;
#247 = CARTESIAN_POINT ( 'NONE',  ( 0.000000000000000000, 0.000000000000000000, 0.000000000000000000 ) ) ;
#248 = CARTESIAN_POINT ( 'NONE',  ( 1.600000000000000089, 1.959434878635764737E-16, 125.0000000000000000 ) ) ;
#249 = UNCERTAINTY_MEASURE_WITH_UNIT (LENGTH_MEASURE( 1.000000000000000082E-05 ), #106, 'distance_accuracy_value', 'NONE');
#250 = ORIENTED_EDGE ( 'NONE', *, *, #253, .F. ) ;
#251 = AXIS2_PLACEMENT_3D ( 'NONE', #108, #116, #28 ) ;
#252 = PERSON_AND_ORGANIZATION_ROLE ( 'classification_officer' ) ;
#253 = EDGE_CURVE ( 'NONE', #76, #215, #23, .T. ) ;
#254 = MECHANICAL_CONTEXT ( 'NONE', #96, 'mechanical' ) ;
#255 = PERSON_AND_ORGANIZATION_ROLE ( 'creator' ) ;
ENDSEC;
END-ISO-10303-21;
