ISO-10303-21;
HEADER;
FILE_DESCRIPTION (( 'STEP AP203' ),
    '1' );
FILE_NAME ('b465.STEP',
    '2023-02-13T14:34:47',
    ( '' ),
    ( '' ),
    'SwSTEP 2.0',
    'SolidWorks 2019',
    '' );
FILE_SCHEMA (( 'CONFIG_CONTROL_DESIGN' ));
ENDSEC;

DATA;
#1 = CALENDAR_DATE ( 2023, 13, 2 ) ;
#2 = DIRECTION ( 'NONE',  ( 0.000000000000000000, 0.000000000000000000, 1.000000000000000000 ) ) ;
#3 = ADVANCED_FACE ( 'NONE', ( #119 ), #14, .T. ) ;
#4 = LINE ( 'NONE', #243, #62 ) ;
#5 = CLOSED_SHELL ( 'NONE', ( #208, #56, #3, #102, #231, #90, #234 ) ) ;
#6 = PLANE ( 'NONE',  #63 ) ;
#7 = COORDINATED_UNIVERSAL_TIME_OFFSET ( 1, 0, .AHEAD. ) ;
#8 = ORIENTED_EDGE ( 'NONE', *, *, #17, .T. ) ;
#9 = DIRECTION ( 'NONE',  ( 1.000000000000000000, 0.000000000000000000, -0.000000000000000000 ) ) ;
#10 = APPLICATION_CONTEXT ( 'configuration controlled 3d designs of mechanical parts and assemblies' ) ;
#11 = CARTESIAN_POINT ( 'NONE',  ( 0.000000000000000000, 0.000000000000000000, 3.000000000000000000 ) ) ;
#12 = VERTEX_POINT ( 'NONE', #186 ) ;
#13 = DIRECTION ( 'NONE',  ( 1.000000000000000000, 0.000000000000000000, 0.000000000000000000 ) ) ;
#14 = CYLINDRICAL_SURFACE ( 'NONE', #101, 5.000000000000000000 ) ;
#15 = AXIS2_PLACEMENT_3D ( 'NONE', #130, #198, #184 ) ;
#16 = DIRECTION ( 'NONE',  ( -1.000000000000000000, 0.000000000000000000, 0.000000000000000000 ) ) ;
#17 = EDGE_CURVE ( 'NONE', #115, #12, #160, .T. ) ;
#18 = DIRECTION ( 'NONE',  ( -1.000000000000000000, 0.000000000000000000, 0.000000000000000000 ) ) ;
#19 = EDGE_CURVE ( 'NONE', #177, #133, #142, .T. ) ;
#20 = FACE_OUTER_BOUND ( 'NONE', #232, .T. ) ;
#21 =( NAMED_UNIT ( * ) PLANE_ANGLE_UNIT ( ) SI_UNIT ( $, .RADIAN. ) );
#22 = CARTESIAN_POINT ( 'NONE',  ( 0.000000000000000000, 0.000000000000000000, 0.000000000000000000 ) ) ;
#23 = PLANE ( 'NONE',  #215 ) ;
#24 = LINE ( 'NONE', #203, #137 ) ;
#25 = FACE_OUTER_BOUND ( 'NONE', #31, .T. ) ;
#26 = VECTOR ( 'NONE', #209, 1000.000000000000000 ) ;
#27 = CARTESIAN_POINT ( 'NONE',  ( -2.600000000000000089, 0.000000000000000000, 3.000000000000000000 ) ) ;
#28 =( GEOMETRIC_REPRESENTATION_CONTEXT ( 3 ) GLOBAL_UNCERTAINTY_ASSIGNED_CONTEXT ( ( #96 ) ) GLOBAL_UNIT_ASSIGNED_CONTEXT ( ( #120, #21, #144 ) ) REPRESENTATION_CONTEXT ( 'NONE', 'WORKASPACE' ) );
#29 = EDGE_LOOP ( 'NONE', ( #59, #249 ) ) ;
#30 = SECURITY_CLASSIFICATION_LEVEL ( 'unclassified' ) ;
#31 = EDGE_LOOP ( 'NONE', ( #155, #39 ) ) ;
#32 = APPROVAL_STATUS ( 'not_yet_approved' ) ;
#33 = APPROVAL_ROLE ( '' ) ;
#34 = PRODUCT_DEFINITION ( 'NEZNÁMÝ', '', #239, #251 ) ;
#35 = MANIFOLD_SOLID_BREP ( 'Pøidat vysunutím3', #5 ) ;
#36 = ORIENTED_EDGE ( 'NONE', *, *, #253, .F. ) ;
#37 = CC_DESIGN_APPROVAL ( #190, ( #205 ) ) ;
#38 = CARTESIAN_POINT ( 'NONE',  ( 0.000000000000000000, 0.000000000000000000, 3.000000000000000000 ) ) ;
#39 = ORIENTED_EDGE ( 'NONE', *, *, #123, .F. ) ;
#40 = AXIS2_PLACEMENT_3D ( 'NONE', #196, #216, #68 ) ;
#41 = APPROVAL_PERSON_ORGANIZATION ( #188, #99, #81 ) ;
#42 = APPROVAL_DATE_TIME ( #154, #99 ) ;
#43 = CYLINDRICAL_SURFACE ( 'NONE', #86, 5.000000000000000000 ) ;
#44 = CIRCLE ( 'NONE', #185, 5.000000000000000000 ) ;
#45 = DIRECTION ( 'NONE',  ( 0.000000000000000000, 0.000000000000000000, 1.000000000000000000 ) ) ;
#46 = DIRECTION ( 'NONE',  ( 0.000000000000000000, 0.000000000000000000, 1.000000000000000000 ) ) ;
#47 = MECHANICAL_CONTEXT ( 'NONE', #10, 'mechanical' ) ;
#48 = DIRECTION ( 'NONE',  ( 1.000000000000000000, 0.000000000000000000, 0.000000000000000000 ) ) ;
#49 = CARTESIAN_POINT ( 'NONE',  ( -2.600000000000000089, 0.000000000000000000, 500.0000000000000000 ) ) ;
#50 = PERSON_AND_ORGANIZATION ( #233, #53 ) ;
#51 = CARTESIAN_POINT ( 'NONE',  ( 0.000000000000000000, 0.000000000000000000, 500.0000000000000000 ) ) ;
#52 = DIRECTION ( 'NONE',  ( 0.000000000000000000, 0.000000000000000000, 1.000000000000000000 ) ) ;
#53 = ORGANIZATION ( 'NEURÈENÝ', 'NEURÈENÝ', '' ) ;
#54 = ORIENTED_EDGE ( 'NONE', *, *, #206, .T. ) ;
#55 = DATE_TIME_ROLE ( 'creation_date' ) ;
#56 = ADVANCED_FACE ( 'NONE', ( #121 ), #43, .T. ) ;
#57 = ORIENTED_EDGE ( 'NONE', *, *, #169, .F. ) ;
#58 = PRODUCT_RELATED_PRODUCT_CATEGORY ( 'detail', '', ( #172 ) ) ;
#59 = ORIENTED_EDGE ( 'NONE', *, *, #253, .T. ) ;
#60 = APPROVAL_PERSON_ORGANIZATION ( #171, #242, #33 ) ;
#61 = ORIENTED_EDGE ( 'NONE', *, *, #163, .F. ) ;
#62 = VECTOR ( 'NONE', #168, 1000.000000000000000 ) ;
#63 = AXIS2_PLACEMENT_3D ( 'NONE', #22, #104, #87 ) ;
#64 = APPLICATION_PROTOCOL_DEFINITION ( 'international standard', 'config_control_design', 1994, #10 ) ;
#65 = AXIS2_PLACEMENT_3D ( 'NONE', #38, #52, #132 ) ;
#66 = CC_DESIGN_SECURITY_CLASSIFICATION ( #205, ( #239 ) ) ;
#67 = PERSON_AND_ORGANIZATION ( #233, #53 ) ;
#68 = DIRECTION ( 'NONE',  ( 1.000000000000000000, 0.000000000000000000, 0.000000000000000000 ) ) ;
#69 = DIRECTION ( 'NONE',  ( 1.000000000000000000, 0.000000000000000000, 0.000000000000000000 ) ) ;
#70 = DIRECTION ( 'NONE',  ( 0.000000000000000000, 0.000000000000000000, 1.000000000000000000 ) ) ;
#71 = DIRECTION ( 'NONE',  ( 0.000000000000000000, 0.000000000000000000, 1.000000000000000000 ) ) ;
#72 = PRODUCT_DEFINITION_SHAPE ( 'NONE', 'NONE',  #34 ) ;
#73 = APPROVAL_DATE_TIME ( #229, #242 ) ;
#74 = DIRECTION ( 'NONE',  ( 0.000000000000000000, 0.000000000000000000, 1.000000000000000000 ) ) ;
#75 = CARTESIAN_POINT ( 'NONE',  ( 5.000000000000000000, 6.123233995736766282E-16, 3.000000000000000000 ) ) ;
#76 = PERSON_AND_ORGANIZATION_ROLE ( 'design_supplier' ) ;
#77 = ORIENTED_EDGE ( 'NONE', *, *, #222, .T. ) ;
#78 = CIRCLE ( 'NONE', #189, 2.600000000000000089 ) ;
#79 = PERSON_AND_ORGANIZATION_ROLE ( 'creator' ) ;
#80 = EDGE_LOOP ( 'NONE', ( #136, #187 ) ) ;
#81 = APPROVAL_ROLE ( '' ) ;
#82 = ORIENTED_EDGE ( 'NONE', *, *, #122, .F. ) ;
#83 = LOCAL_TIME ( 15, 34, 47.00000000000000000, #135 ) ;
#84 = CC_DESIGN_PERSON_AND_ORGANIZATION_ASSIGNMENT ( #245, #76, ( #239 ) ) ;
#85 = CARTESIAN_POINT ( 'NONE',  ( 0.000000000000000000, 0.000000000000000000, 3.000000000000000000 ) ) ;
#86 = AXIS2_PLACEMENT_3D ( 'NONE', #194, #140, #18 ) ;
#87 = DIRECTION ( 'NONE',  ( 1.000000000000000000, 0.000000000000000000, -0.000000000000000000 ) ) ;
#88 = APPLICATION_PROTOCOL_DEFINITION ( 'international standard', 'config_control_design', 1994, #254 ) ;
#89 = CIRCLE ( 'NONE', #109, 5.000000000000000000 ) ;
#90 = ADVANCED_FACE ( 'NONE', ( #20 ), #100, .T. ) ;
#91 = CC_DESIGN_DATE_AND_TIME_ASSIGNMENT ( #153, #55, ( #34 ) ) ;
#92 = CALENDAR_DATE ( 2023, 13, 2 ) ;
#93 = AXIS2_PLACEMENT_3D ( 'NONE', #125, #71, #48 ) ;
#94 = VERTEX_POINT ( 'NONE', #166 ) ;
#95 = VERTEX_POINT ( 'NONE', #236 ) ;
#96 = UNCERTAINTY_MEASURE_WITH_UNIT (LENGTH_MEASURE( 1.000000000000000082E-05 ), #120, 'distance_accuracy_value', 'NONE');
#97 = EDGE_LOOP ( 'NONE', ( #173, #36, #54, #207 ) ) ;
#98 = DIRECTION ( 'NONE',  ( -1.000000000000000000, 0.000000000000000000, 0.000000000000000000 ) ) ;
#99 = APPROVAL ( #220, 'NEURÈENÝ' ) ;
#100 = CYLINDRICAL_SURFACE ( 'NONE', #156, 2.600000000000000089 ) ;
#101 = AXIS2_PLACEMENT_3D ( 'NONE', #11, #250, #98 ) ;
#102 = ADVANCED_FACE ( 'NONE', ( #106, #202 ), #108, .T. ) ;
#103 = CARTESIAN_POINT ( 'NONE',  ( 0.000000000000000000, 0.000000000000000000, 0.000000000000000000 ) ) ;
#104 = DIRECTION ( 'NONE',  ( 0.000000000000000000, 0.000000000000000000, 1.000000000000000000 ) ) ;
#105 = AXIS2_PLACEMENT_3D ( 'NONE', #238, #2, #147 ) ;
#106 = FACE_BOUND ( 'NONE', #246, .T. ) ;
#107 = CARTESIAN_POINT ( 'NONE',  ( 0.000000000000000000, 0.000000000000000000, 500.0000000000000000 ) ) ;
#108 = PLANE ( 'NONE',  #114 ) ;
#109 = AXIS2_PLACEMENT_3D ( 'NONE', #212, #165, #13 ) ;
#110 = CC_DESIGN_PERSON_AND_ORGANIZATION_ASSIGNMENT ( #131, #244, ( #172 ) ) ;
#111 = VERTEX_POINT ( 'NONE', #240 ) ;
#112 = PERSON_AND_ORGANIZATION ( #233, #53 ) ;
#113 = CALENDAR_DATE ( 2023, 13, 2 ) ;
#114 = AXIS2_PLACEMENT_3D ( 'NONE', #241, #46, #126 ) ;
#115 = VERTEX_POINT ( 'NONE', #170 ) ;
#116 = LOCAL_TIME ( 15, 34, 47.00000000000000000, #247 ) ;
#117 = EDGE_CURVE ( 'NONE', #192, #111, #149, .T. ) ;
#118 = PERSON_AND_ORGANIZATION_ROLE ( 'creator' ) ;
#119 = FACE_OUTER_BOUND ( 'NONE', #97, .T. ) ;
#120 =( LENGTH_UNIT ( ) NAMED_UNIT ( * ) SI_UNIT ( .MILLI., .METRE. ) );
#121 = FACE_OUTER_BOUND ( 'NONE', #230, .T. ) ;
#122 = EDGE_CURVE ( 'NONE', #192, #133, #4, .T. ) ;
#123 = EDGE_CURVE ( 'NONE', #12, #94, #197, .T. ) ;
#124 = LOCAL_TIME ( 15, 34, 47.00000000000000000, #7 ) ;
#125 = CARTESIAN_POINT ( 'NONE',  ( 0.000000000000000000, 0.000000000000000000, 0.000000000000000000 ) ) ;
#126 = DIRECTION ( 'NONE',  ( 1.000000000000000000, 0.000000000000000000, -0.000000000000000000 ) ) ;
#127 = FACE_OUTER_BOUND ( 'NONE', #221, .T. ) ;
#128 = DIRECTION ( 'NONE',  ( -0.000000000000000000, -0.000000000000000000, -1.000000000000000000 ) ) ;
#129 = CALENDAR_DATE ( 2023, 13, 2 ) ;
#130 = CARTESIAN_POINT ( 'NONE',  ( 0.000000000000000000, 0.000000000000000000, 500.0000000000000000 ) ) ;
#131 = PERSON_AND_ORGANIZATION ( #233, #53 ) ;
#132 = DIRECTION ( 'NONE',  ( 1.000000000000000000, 0.000000000000000000, 0.000000000000000000 ) ) ;
#133 = VERTEX_POINT ( 'NONE', #27 ) ;
#134 = ORIENTED_EDGE ( 'NONE', *, *, #117, .F. ) ;
#135 = COORDINATED_UNIVERSAL_TIME_OFFSET ( 1, 0, .AHEAD. ) ;
#136 = ORIENTED_EDGE ( 'NONE', *, *, #117, .T. ) ;
#137 = VECTOR ( 'NONE', #128, 1000.000000000000000 ) ;
#138 = ORIENTED_EDGE ( 'NONE', *, *, #19, .F. ) ;
#139 = APPROVAL_ROLE ( '' ) ;
#140 = DIRECTION ( 'NONE',  ( -0.000000000000000000, -0.000000000000000000, -1.000000000000000000 ) ) ;
#141 = DATE_AND_TIME ( #143, #195 ) ;
#142 = CIRCLE ( 'NONE', #65, 2.600000000000000089 ) ;
#143 = CALENDAR_DATE ( 2023, 13, 2 ) ;
#144 =( NAMED_UNIT ( * ) SI_UNIT ( $, .STERADIAN. ) SOLID_ANGLE_UNIT ( ) );
#145 = CC_DESIGN_APPROVAL ( #99, ( #239 ) ) ;
#146 = CARTESIAN_POINT ( 'NONE',  ( -5.000000000000000000, 0.000000000000000000, 3.000000000000000000 ) ) ;
#147 = DIRECTION ( 'NONE',  ( 1.000000000000000000, 0.000000000000000000, 0.000000000000000000 ) ) ;
#148 = LINE ( 'NONE', #146, #255 ) ;
#149 = CIRCLE ( 'NONE', #40, 2.600000000000000089 ) ;
#150 = LOCAL_TIME ( 15, 34, 47.00000000000000000, #158 ) ;
#151 = DIRECTION ( 'NONE',  ( 1.000000000000000000, 0.000000000000000000, 0.000000000000000000 ) ) ;
#152 = EDGE_CURVE ( 'NONE', #133, #177, #164, .T. ) ;
#153 = DATE_AND_TIME ( #129, #150 ) ;
#154 = DATE_AND_TIME ( #1, #83 ) ;
#155 = ORIENTED_EDGE ( 'NONE', *, *, #200, .F. ) ;
#156 = AXIS2_PLACEMENT_3D ( 'NONE', #213, #178, #16 ) ;
#157 = ORIENTED_EDGE ( 'NONE', *, *, #222, .F. ) ;
#158 = COORDINATED_UNIVERSAL_TIME_OFFSET ( 1, 0, .AHEAD. ) ;
#159 = CC_DESIGN_PERSON_AND_ORGANIZATION_ASSIGNMENT ( #50, #79, ( #34 ) ) ;
#160 = LINE ( 'NONE', #75, #26 ) ;
#161 = AXIS2_PLACEMENT_3D ( 'NONE', #179, #45, #69 ) ;
#162 = ORIENTED_EDGE ( 'NONE', *, *, #152, .T. ) ;
#163 = EDGE_CURVE ( 'NONE', #115, #95, #44, .T. ) ;
#164 = CIRCLE ( 'NONE', #161, 2.600000000000000089 ) ;
#165 = DIRECTION ( 'NONE',  ( 0.000000000000000000, 0.000000000000000000, 1.000000000000000000 ) ) ;
#166 = CARTESIAN_POINT ( 'NONE',  ( -5.000000000000000000, 0.000000000000000000, 0.000000000000000000 ) ) ;
#167 = FACE_OUTER_BOUND ( 'NONE', #80, .T. ) ;
#168 = DIRECTION ( 'NONE',  ( -0.000000000000000000, -0.000000000000000000, -1.000000000000000000 ) ) ;
#169 = EDGE_CURVE ( 'NONE', #111, #192, #78, .T. ) ;
#170 = CARTESIAN_POINT ( 'NONE',  ( 5.000000000000000000, 6.123233995736766282E-16, 3.000000000000000000 ) ) ;
#171 = PERSON_AND_ORGANIZATION ( #233, #53 ) ;
#172 = PRODUCT ( 'b465', 'b465', '', ( #47 ) ) ;
#173 = ORIENTED_EDGE ( 'NONE', *, *, #17, .F. ) ;
#174 = APPROVAL_STATUS ( 'not_yet_approved' ) ;
#175 = PERSON_AND_ORGANIZATION_ROLE ( 'classification_officer' ) ;
#176 = CC_DESIGN_APPROVAL ( #242, ( #34 ) ) ;
#177 = VERTEX_POINT ( 'NONE', #201 ) ;
#178 = DIRECTION ( 'NONE',  ( -0.000000000000000000, -0.000000000000000000, -1.000000000000000000 ) ) ;
#179 = CARTESIAN_POINT ( 'NONE',  ( 0.000000000000000000, 0.000000000000000000, 3.000000000000000000 ) ) ;
#180 = APPROVAL_PERSON_ORGANIZATION ( #224, #190, #139 ) ;
#181 = DIRECTION ( 'NONE',  ( 1.000000000000000000, 0.000000000000000000, 0.000000000000000000 ) ) ;
#182 = DIRECTION ( 'NONE',  ( 1.000000000000000000, 0.000000000000000000, 0.000000000000000000 ) ) ;
#183 = DIRECTION ( 'NONE',  ( 0.000000000000000000, 0.000000000000000000, 1.000000000000000000 ) ) ;
#184 = DIRECTION ( 'NONE',  ( -1.000000000000000000, 0.000000000000000000, 0.000000000000000000 ) ) ;
#185 = AXIS2_PLACEMENT_3D ( 'NONE', #85, #74, #151 ) ;
#186 = CARTESIAN_POINT ( 'NONE',  ( 5.000000000000000000, 6.123233995736766282E-16, 0.000000000000000000 ) ) ;
#187 = ORIENTED_EDGE ( 'NONE', *, *, #169, .T. ) ;
#188 = PERSON_AND_ORGANIZATION ( #233, #53 ) ;
#189 = AXIS2_PLACEMENT_3D ( 'NONE', #51, #218, #182 ) ;
#190 = APPROVAL ( #32, 'NEURÈENÝ' ) ;
#191 = ORIENTED_EDGE ( 'NONE', *, *, #19, .T. ) ;
#192 = VERTEX_POINT ( 'NONE', #49 ) ;
#193 = ORIENTED_EDGE ( 'NONE', *, *, #152, .F. ) ;
#194 = CARTESIAN_POINT ( 'NONE',  ( 0.000000000000000000, 0.000000000000000000, 3.000000000000000000 ) ) ;
#195 = LOCAL_TIME ( 15, 34, 47.00000000000000000, #211 ) ;
#196 = CARTESIAN_POINT ( 'NONE',  ( 0.000000000000000000, 0.000000000000000000, 500.0000000000000000 ) ) ;
#197 = CIRCLE ( 'NONE', #93, 5.000000000000000000 ) ;
#198 = DIRECTION ( 'NONE',  ( -0.000000000000000000, -0.000000000000000000, -1.000000000000000000 ) ) ;
#199 = AXIS2_PLACEMENT_3D ( 'NONE', #103, #70, #181 ) ;
#200 = EDGE_CURVE ( 'NONE', #94, #12, #235, .T. ) ;
#201 = CARTESIAN_POINT ( 'NONE',  ( 2.600000000000000089, 3.184081677783117698E-16, 3.000000000000000000 ) ) ;
#202 = FACE_OUTER_BOUND ( 'NONE', #29, .T. ) ;
#203 = CARTESIAN_POINT ( 'NONE',  ( 2.600000000000000089, 3.184081677783117698E-16, 500.0000000000000000 ) ) ;
#204 = CC_DESIGN_DATE_AND_TIME_ASSIGNMENT ( #248, #226, ( #205 ) ) ;
#205 = SECURITY_CLASSIFICATION ( '', '', #30 ) ;
#206 = EDGE_CURVE ( 'NONE', #95, #94, #148, .T. ) ;
#207 = ORIENTED_EDGE ( 'NONE', *, *, #200, .T. ) ;
#208 = ADVANCED_FACE ( 'NONE', ( #127 ), #219, .T. ) ;
#209 = DIRECTION ( 'NONE',  ( -0.000000000000000000, -0.000000000000000000, -1.000000000000000000 ) ) ;
#210 = ORIENTED_EDGE ( 'NONE', *, *, #206, .F. ) ;
#211 = COORDINATED_UNIVERSAL_TIME_OFFSET ( 1, 0, .AHEAD. ) ;
#212 = CARTESIAN_POINT ( 'NONE',  ( 0.000000000000000000, 0.000000000000000000, 3.000000000000000000 ) ) ;
#213 = CARTESIAN_POINT ( 'NONE',  ( 0.000000000000000000, 0.000000000000000000, 500.0000000000000000 ) ) ;
#214 = APPROVAL_DATE_TIME ( #141, #190 ) ;
#215 = AXIS2_PLACEMENT_3D ( 'NONE', #107, #183, #9 ) ;
#216 = DIRECTION ( 'NONE',  ( 0.000000000000000000, 0.000000000000000000, 1.000000000000000000 ) ) ;
#217 = DIRECTION ( 'NONE',  ( -0.000000000000000000, -0.000000000000000000, -1.000000000000000000 ) ) ;
#218 = DIRECTION ( 'NONE',  ( 0.000000000000000000, 0.000000000000000000, 1.000000000000000000 ) ) ;
#219 = CYLINDRICAL_SURFACE ( 'NONE', #15, 2.600000000000000089 ) ;
#220 = APPROVAL_STATUS ( 'not_yet_approved' ) ;
#221 = EDGE_LOOP ( 'NONE', ( #57, #77, #191, #82 ) ) ;
#222 = EDGE_CURVE ( 'NONE', #111, #177, #24, .T. ) ;
#223 = ORIENTED_EDGE ( 'NONE', *, *, #122, .T. ) ;
#224 = PERSON_AND_ORGANIZATION ( #233, #53 ) ;
#225 = CC_DESIGN_PERSON_AND_ORGANIZATION_ASSIGNMENT ( #112, #175, ( #205 ) ) ;
#226 = DATE_TIME_ROLE ( 'classification_date' ) ;
#227 = ADVANCED_BREP_SHAPE_REPRESENTATION ( 'b465', ( #35, #199 ), #28 ) ;
#228 = ORIENTED_EDGE ( 'NONE', *, *, #123, .T. ) ;
#229 = DATE_AND_TIME ( #113, #116 ) ;
#230 = EDGE_LOOP ( 'NONE', ( #61, #8, #228, #210 ) ) ;
#231 = ADVANCED_FACE ( 'NONE', ( #25 ), #6, .F. ) ;
#232 = EDGE_LOOP ( 'NONE', ( #157, #134, #223, #162 ) ) ;
#233 = PERSON ( 'NEURÈENÝ', 'NEURÈENÝ', 'NEURÈENÝ', ('NEURÈENÝ'), ('NEURÈENÝ'), ('NEURÈENÝ') ) ;
#234 = ADVANCED_FACE ( 'NONE', ( #167 ), #23, .T. ) ;
#235 = CIRCLE ( 'NONE', #105, 5.000000000000000000 ) ;
#236 = CARTESIAN_POINT ( 'NONE',  ( -5.000000000000000000, 0.000000000000000000, 3.000000000000000000 ) ) ;
#237 = CC_DESIGN_PERSON_AND_ORGANIZATION_ASSIGNMENT ( #67, #118, ( #239 ) ) ;
#238 = CARTESIAN_POINT ( 'NONE',  ( 0.000000000000000000, 0.000000000000000000, 0.000000000000000000 ) ) ;
#239 = PRODUCT_DEFINITION_FORMATION_WITH_SPECIFIED_SOURCE ( 'LIBOVOLNÝ', '', #172, .NOT_KNOWN. ) ;
#240 = CARTESIAN_POINT ( 'NONE',  ( 2.600000000000000089, 3.184081677783117698E-16, 500.0000000000000000 ) ) ;
#241 = CARTESIAN_POINT ( 'NONE',  ( 0.000000000000000000, 0.000000000000000000, 3.000000000000000000 ) ) ;
#242 = APPROVAL ( #174, 'NEURÈENÝ' ) ;
#243 = CARTESIAN_POINT ( 'NONE',  ( -2.600000000000000089, 0.000000000000000000, 500.0000000000000000 ) ) ;
#244 = PERSON_AND_ORGANIZATION_ROLE ( 'design_owner' ) ;
#245 = PERSON_AND_ORGANIZATION ( #233, #53 ) ;
#246 = EDGE_LOOP ( 'NONE', ( #193, #138 ) ) ;
#247 = COORDINATED_UNIVERSAL_TIME_OFFSET ( 1, 0, .AHEAD. ) ;
#248 = DATE_AND_TIME ( #92, #124 ) ;
#249 = ORIENTED_EDGE ( 'NONE', *, *, #163, .T. ) ;
#250 = DIRECTION ( 'NONE',  ( -0.000000000000000000, -0.000000000000000000, -1.000000000000000000 ) ) ;
#251 = DESIGN_CONTEXT ( 'detailed design', #254, 'design' ) ;
#252 = SHAPE_DEFINITION_REPRESENTATION ( #72, #227 ) ;
#253 = EDGE_CURVE ( 'NONE', #95, #115, #89, .T. ) ;
#254 = APPLICATION_CONTEXT ( 'configuration controlled 3d designs of mechanical parts and assemblies' ) ;
#255 = VECTOR ( 'NONE', #217, 1000.000000000000000 ) ;
ENDSEC;
END-ISO-10303-21;
