ISO-10303-21;
HEADER;
FILE_DESCRIPTION (( 'STEP AP203' ),
    '1' );
FILE_NAME ('b5a0.STEP',
    '2023-02-13T07:55:11',
    ( '' ),
    ( '' ),
    'SwSTEP 2.0',
    'SolidWorks 2019',
    '' );
FILE_SCHEMA (( 'CONFIG_CONTROL_DESIGN' ));
ENDSEC;

DATA;
#1 = ORIENTED_EDGE ( 'NONE', *, *, #118, .T. ) ;
#2 =( GEOMETRIC_REPRESENTATION_CONTEXT ( 3 ) GLOBAL_UNCERTAINTY_ASSIGNED_CONTEXT ( ( #201 ) ) GLOBAL_UNIT_ASSIGNED_CONTEXT ( ( #122, #203, #64 ) ) REPRESENTATION_CONTEXT ( 'NONE', 'WORKASPACE' ) );
#3 = LINE ( 'NONE', #227, #251 ) ;
#4 = ADVANCED_FACE ( 'NONE', ( #237 ), #136, .T. ) ;
#5 = PERSON_AND_ORGANIZATION ( #139, #61 ) ;
#6 = DIRECTION ( 'NONE',  ( 1.000000000000000000, 0.000000000000000000, 0.000000000000000000 ) ) ;
#7 = VERTEX_POINT ( 'NONE', #228 ) ;
#8 = DATE_AND_TIME ( #115, #131 ) ;
#9 = EDGE_LOOP ( 'NONE', ( #26, #166, #178, #120 ) ) ;
#10 = DATE_AND_TIME ( #111, #33 ) ;
#11 = CARTESIAN_POINT ( 'NONE',  ( -9.000000000000000000, 0.000000000000000000, 800.0000000000000000 ) ) ;
#12 = CARTESIAN_POINT ( 'NONE',  ( 0.000000000000000000, 0.000000000000000000, 800.0000000000000000 ) ) ;
#13 = PLANE ( 'NONE',  #157 ) ;
#14 = ADVANCED_FACE ( 'NONE', ( #20, #99 ), #13, .T. ) ;
#15 = AXIS2_PLACEMENT_3D ( 'NONE', #12, #176, #252 ) ;
#16 = EDGE_LOOP ( 'NONE', ( #119, #1 ) ) ;
#17 = ADVANCED_FACE ( 'NONE', ( #172 ), #169, .T. ) ;
#18 = DIRECTION ( 'NONE',  ( 0.000000000000000000, 0.000000000000000000, 1.000000000000000000 ) ) ;
#19 = DATE_AND_TIME ( #44, #93 ) ;
#20 = FACE_BOUND ( 'NONE', #87, .T. ) ;
#21 = SECURITY_CLASSIFICATION ( '', '', #170 ) ;
#22 = CC_DESIGN_PERSON_AND_ORGANIZATION_ASSIGNMENT ( #174, #129, ( #95 ) ) ;
#23 = PERSON_AND_ORGANIZATION ( #139, #61 ) ;
#24 = DIRECTION ( 'NONE',  ( 1.000000000000000000, 0.000000000000000000, -0.000000000000000000 ) ) ;
#25 = DIRECTION ( 'NONE',  ( 0.000000000000000000, 0.000000000000000000, 1.000000000000000000 ) ) ;
#26 = ORIENTED_EDGE ( 'NONE', *, *, #118, .F. ) ;
#27 = EDGE_CURVE ( 'NONE', #138, #192, #214, .T. ) ;
#28 = CC_DESIGN_SECURITY_CLASSIFICATION ( #21, ( #95 ) ) ;
#29 = APPLICATION_PROTOCOL_DEFINITION ( 'international standard', 'config_control_design', 1994, #31 ) ;
#30 = APPROVAL_DATE_TIME ( #142, #121 ) ;
#31 = APPLICATION_CONTEXT ( 'configuration controlled 3d designs of mechanical parts and assemblies' ) ;
#32 = AXIS2_PLACEMENT_3D ( 'NONE', #190, #211, #6 ) ;
#33 = LOCAL_TIME ( 8, 55, 11.00000000000000000, #236 ) ;
#34 = CC_DESIGN_APPROVAL ( #221, ( #158 ) ) ;
#35 = CIRCLE ( 'NONE', #147, 12.00000000000000178 ) ;
#36 = AXIS2_PLACEMENT_3D ( 'NONE', #248, #18, #24 ) ;
#37 = MANIFOLD_SOLID_BREP ( 'Pøidat vysunutím3', #117 ) ;
#38 = DIRECTION ( 'NONE',  ( 0.000000000000000000, 0.000000000000000000, 1.000000000000000000 ) ) ;
#39 = DIRECTION ( 'NONE',  ( -0.000000000000000000, -0.000000000000000000, -1.000000000000000000 ) ) ;
#40 = DATE_TIME_ROLE ( 'creation_date' ) ;
#41 = DIRECTION ( 'NONE',  ( -0.000000000000000000, -0.000000000000000000, -1.000000000000000000 ) ) ;
#42 = PLANE ( 'NONE',  #36 ) ;
#43 = AXIS2_PLACEMENT_3D ( 'NONE', #246, #225, #66 ) ;
#44 = CALENDAR_DATE ( 2023, 13, 2 ) ;
#45 = DIRECTION ( 'NONE',  ( 0.000000000000000000, 0.000000000000000000, 1.000000000000000000 ) ) ;
#46 = SHAPE_DEFINITION_REPRESENTATION ( #126, #81 ) ;
#47 = AXIS2_PLACEMENT_3D ( 'NONE', #77, #104, #67 ) ;
#48 = MECHANICAL_CONTEXT ( 'NONE', #155, 'mechanical' ) ;
#49 = ORIENTED_EDGE ( 'NONE', *, *, #163, .F. ) ;
#50 = PERSON_AND_ORGANIZATION ( #139, #61 ) ;
#51 = ORIENTED_EDGE ( 'NONE', *, *, #132, .T. ) ;
#52 = EDGE_CURVE ( 'NONE', #250, #57, #72, .T. ) ;
#53 = EDGE_LOOP ( 'NONE', ( #146, #51 ) ) ;
#54 = EDGE_CURVE ( 'NONE', #192, #7, #35, .T. ) ;
#55 = DIRECTION ( 'NONE',  ( 1.000000000000000000, 0.000000000000000000, -0.000000000000000000 ) ) ;
#56 = COORDINATED_UNIVERSAL_TIME_OFFSET ( 1, 0, .AHEAD. ) ;
#57 = VERTEX_POINT ( 'NONE', #110 ) ;
#58 = AXIS2_PLACEMENT_3D ( 'NONE', #160, #38, #123 ) ;
#59 = DIRECTION ( 'NONE',  ( 1.000000000000000000, 0.000000000000000000, 0.000000000000000000 ) ) ;
#60 = VERTEX_POINT ( 'NONE', #85 ) ;
#61 = ORGANIZATION ( 'NEURÈENÝ', 'NEURÈENÝ', '' ) ;
#62 = FACE_OUTER_BOUND ( 'NONE', #76, .T. ) ;
#63 = VERTEX_POINT ( 'NONE', #80 ) ;
#64 =( NAMED_UNIT ( * ) SI_UNIT ( $, .STERADIAN. ) SOLID_ANGLE_UNIT ( ) );
#65 = EDGE_LOOP ( 'NONE', ( #71, #89, #164, #108 ) ) ;
#66 = DIRECTION ( 'NONE',  ( 1.000000000000000000, 0.000000000000000000, 0.000000000000000000 ) ) ;
#67 = DIRECTION ( 'NONE',  ( -1.000000000000000000, 0.000000000000000000, 0.000000000000000000 ) ) ;
#68 = APPROVAL_ROLE ( '' ) ;
#69 = AXIS2_PLACEMENT_3D ( 'NONE', #216, #181, #135 ) ;
#70 = ORIENTED_EDGE ( 'NONE', *, *, #137, .F. ) ;
#71 = ORIENTED_EDGE ( 'NONE', *, *, #97, .F. ) ;
#72 = LINE ( 'NONE', #231, #202 ) ;
#73 = CC_DESIGN_PERSON_AND_ORGANIZATION_ASSIGNMENT ( #92, #195, ( #95 ) ) ;
#74 = APPROVAL_STATUS ( 'not_yet_approved' ) ;
#75 = CC_DESIGN_DATE_AND_TIME_ASSIGNMENT ( #10, #197, ( #21 ) ) ;
#76 = EDGE_LOOP ( 'NONE', ( #219, #70 ) ) ;
#77 = CARTESIAN_POINT ( 'NONE',  ( 0.000000000000000000, 0.000000000000000000, 7.000000000000000000 ) ) ;
#78 = AXIS2_PLACEMENT_3D ( 'NONE', #205, #39, #144 ) ;
#79 = ADVANCED_FACE ( 'NONE', ( #82 ), #242, .T. ) ;
#80 = CARTESIAN_POINT ( 'NONE',  ( 12.00000000000000178, 1.469576158976824144E-15, 7.000000000000000000 ) ) ;
#81 = ADVANCED_BREP_SHAPE_REPRESENTATION ( 'b5a0', ( #37, #98 ), #2 ) ;
#82 = FACE_OUTER_BOUND ( 'NONE', #179, .T. ) ;
#83 = CARTESIAN_POINT ( 'NONE',  ( -12.00000000000000178, 0.000000000000000000, 0.000000000000000000 ) ) ;
#84 = AXIS2_PLACEMENT_3D ( 'NONE', #204, #96, #59 ) ;
#85 = CARTESIAN_POINT ( 'NONE',  ( 9.000000000000000000, 1.102182119232617714E-15, 7.000000000000000000 ) ) ;
#86 = ADVANCED_FACE ( 'NONE', ( #62 ), #224, .F. ) ;
#87 = EDGE_LOOP ( 'NONE', ( #171, #102 ) ) ;
#88 = CC_DESIGN_DATE_AND_TIME_ASSIGNMENT ( #19, #40, ( #158 ) ) ;
#89 = ORIENTED_EDGE ( 'NONE', *, *, #187, .F. ) ;
#90 = DIRECTION ( 'NONE',  ( -0.000000000000000000, -0.000000000000000000, -1.000000000000000000 ) ) ;
#91 = PERSON_AND_ORGANIZATION ( #139, #61 ) ;
#92 = PERSON_AND_ORGANIZATION ( #139, #61 ) ;
#93 = LOCAL_TIME ( 8, 55, 11.00000000000000000, #141 ) ;
#94 = AXIS2_PLACEMENT_3D ( 'NONE', #103, #249, #193 ) ;
#95 = PRODUCT_DEFINITION_FORMATION_WITH_SPECIFIED_SOURCE ( 'LIBOVOLNÝ', '', #223, .NOT_KNOWN. ) ;
#96 = DIRECTION ( 'NONE',  ( 0.000000000000000000, 0.000000000000000000, 1.000000000000000000 ) ) ;
#97 = EDGE_CURVE ( 'NONE', #182, #60, #3, .T. ) ;
#98 = AXIS2_PLACEMENT_3D ( 'NONE', #150, #230, #207 ) ;
#99 = FACE_OUTER_BOUND ( 'NONE', #53, .T. ) ;
#100 = CARTESIAN_POINT ( 'NONE',  ( 0.000000000000000000, 0.000000000000000000, 800.0000000000000000 ) ) ;
#101 = DIRECTION ( 'NONE',  ( 1.000000000000000000, 0.000000000000000000, 0.000000000000000000 ) ) ;
#102 = ORIENTED_EDGE ( 'NONE', *, *, #243, .F. ) ;
#103 = CARTESIAN_POINT ( 'NONE',  ( 0.000000000000000000, 0.000000000000000000, 0.000000000000000000 ) ) ;
#104 = DIRECTION ( 'NONE',  ( -0.000000000000000000, -0.000000000000000000, -1.000000000000000000 ) ) ;
#105 = APPROVAL_STATUS ( 'not_yet_approved' ) ;
#106 = COORDINATED_UNIVERSAL_TIME_OFFSET ( 1, 0, .AHEAD. ) ;
#107 = AXIS2_PLACEMENT_3D ( 'NONE', #124, #45, #101 ) ;
#108 = ORIENTED_EDGE ( 'NONE', *, *, #194, .T. ) ;
#109 = CIRCLE ( 'NONE', #196, 9.000000000000000000 ) ;
#110 = CARTESIAN_POINT ( 'NONE',  ( -9.000000000000000000, 0.000000000000000000, 7.000000000000000000 ) ) ;
#111 = CALENDAR_DATE ( 2023, 13, 2 ) ;
#112 = CC_DESIGN_PERSON_AND_ORGANIZATION_ASSIGNMENT ( #130, #244, ( #158 ) ) ;
#113 = CARTESIAN_POINT ( 'NONE',  ( 0.000000000000000000, 0.000000000000000000, 7.000000000000000000 ) ) ;
#114 = APPROVAL_ROLE ( '' ) ;
#115 = CALENDAR_DATE ( 2023, 13, 2 ) ;
#116 = CARTESIAN_POINT ( 'NONE',  ( 9.000000000000000000, 1.102182119232617714E-15, 800.0000000000000000 ) ) ;
#117 = CLOSED_SHELL ( 'NONE', ( #17, #4, #79, #14, #86, #229, #184 ) ) ;
#118 = EDGE_CURVE ( 'NONE', #182, #250, #238, .T. ) ;
#119 = ORIENTED_EDGE ( 'NONE', *, *, #187, .T. ) ;
#120 = ORIENTED_EDGE ( 'NONE', *, *, #52, .F. ) ;
#121 = APPROVAL ( #74, 'NEURÈENÝ' ) ;
#122 =( LENGTH_UNIT ( ) NAMED_UNIT ( * ) SI_UNIT ( .MILLI., .METRE. ) );
#123 = DIRECTION ( 'NONE',  ( 1.000000000000000000, 0.000000000000000000, -0.000000000000000000 ) ) ;
#124 = CARTESIAN_POINT ( 'NONE',  ( 0.000000000000000000, 0.000000000000000000, 800.0000000000000000 ) ) ;
#125 = CC_DESIGN_APPROVAL ( #121, ( #21 ) ) ;
#126 = PRODUCT_DEFINITION_SHAPE ( 'NONE', 'NONE',  #158 ) ;
#127 = APPROVAL_ROLE ( '' ) ;
#128 = EDGE_LOOP ( 'NONE', ( #210, #233, #156, #148 ) ) ;
#129 = PERSON_AND_ORGANIZATION_ROLE ( 'design_supplier' ) ;
#130 = PERSON_AND_ORGANIZATION ( #139, #61 ) ;
#131 = LOCAL_TIME ( 8, 55, 11.00000000000000000, #56 ) ;
#132 = EDGE_CURVE ( 'NONE', #63, #138, #226, .T. ) ;
#133 = LINE ( 'NONE', #175, #183 ) ;
#134 = CALENDAR_DATE ( 2023, 13, 2 ) ;
#135 = DIRECTION ( 'NONE',  ( 1.000000000000000000, 0.000000000000000000, 0.000000000000000000 ) ) ;
#136 = CYLINDRICAL_SURFACE ( 'NONE', #47, 12.00000000000000178 ) ;
#137 = EDGE_CURVE ( 'NONE', #7, #192, #213, .T. ) ;
#138 = VERTEX_POINT ( 'NONE', #167 ) ;
#139 = PERSON ( 'NEURÈENÝ', 'NEURÈENÝ', 'NEURÈENÝ', ('NEURÈENÝ'), ('NEURÈENÝ'), ('NEURÈENÝ') ) ;
#140 = CIRCLE ( 'NONE', #69, 9.000000000000000000 ) ;
#141 = COORDINATED_UNIVERSAL_TIME_OFFSET ( 1, 0, .AHEAD. ) ;
#142 = DATE_AND_TIME ( #134, #240 ) ;
#143 = APPROVAL_PERSON_ORGANIZATION ( #165, #221, #127 ) ;
#144 = DIRECTION ( 'NONE',  ( -1.000000000000000000, 0.000000000000000000, 0.000000000000000000 ) ) ;
#145 = DESIGN_CONTEXT ( 'detailed design', #31, 'design' ) ;
#146 = ORIENTED_EDGE ( 'NONE', *, *, #161, .T. ) ;
#147 = AXIS2_PLACEMENT_3D ( 'NONE', #255, #234, #235 ) ;
#148 = ORIENTED_EDGE ( 'NONE', *, *, #27, .F. ) ;
#149 = DATE_AND_TIME ( #253, #220 ) ;
#150 = CARTESIAN_POINT ( 'NONE',  ( 0.000000000000000000, 0.000000000000000000, 0.000000000000000000 ) ) ;
#151 = APPROVAL_DATE_TIME ( #8, #212 ) ;
#152 = PRODUCT_RELATED_PRODUCT_CATEGORY ( 'detail', '', ( #223 ) ) ;
#153 = ORIENTED_EDGE ( 'NONE', *, *, #27, .T. ) ;
#154 = CARTESIAN_POINT ( 'NONE',  ( -12.00000000000000178, 0.000000000000000000, 7.000000000000000000 ) ) ;
#155 = APPLICATION_CONTEXT ( 'configuration controlled 3d designs of mechanical parts and assemblies' ) ;
#156 = ORIENTED_EDGE ( 'NONE', *, *, #137, .T. ) ;
#157 = AXIS2_PLACEMENT_3D ( 'NONE', #113, #198, #55 ) ;
#158 = PRODUCT_DEFINITION ( 'NEZNÁMÝ', '', #95, #145 ) ;
#159 = CARTESIAN_POINT ( 'NONE',  ( 0.000000000000000000, 0.000000000000000000, 7.000000000000000000 ) ) ;
#160 = CARTESIAN_POINT ( 'NONE',  ( 0.000000000000000000, 0.000000000000000000, 0.000000000000000000 ) ) ;
#161 = EDGE_CURVE ( 'NONE', #138, #63, #218, .T. ) ;
#162 = ORIENTED_EDGE ( 'NONE', *, *, #161, .F. ) ;
#163 = EDGE_CURVE ( 'NONE', #63, #7, #133, .T. ) ;
#164 = ORIENTED_EDGE ( 'NONE', *, *, #52, .T. ) ;
#165 = PERSON_AND_ORGANIZATION ( #139, #61 ) ;
#166 = ORIENTED_EDGE ( 'NONE', *, *, #97, .T. ) ;
#167 = CARTESIAN_POINT ( 'NONE',  ( -12.00000000000000178, 0.000000000000000000, 7.000000000000000000 ) ) ;
#168 = AXIS2_PLACEMENT_3D ( 'NONE', #159, #247, #188 ) ;
#169 = CYLINDRICAL_SURFACE ( 'NONE', #15, 9.000000000000000000 ) ;
#170 = SECURITY_CLASSIFICATION_LEVEL ( 'unclassified' ) ;
#171 = ORIENTED_EDGE ( 'NONE', *, *, #194, .F. ) ;
#172 = FACE_OUTER_BOUND ( 'NONE', #9, .T. ) ;
#173 = DIRECTION ( 'NONE',  ( -0.000000000000000000, -0.000000000000000000, -1.000000000000000000 ) ) ;
#174 = PERSON_AND_ORGANIZATION ( #139, #61 ) ;
#175 = CARTESIAN_POINT ( 'NONE',  ( 12.00000000000000178, 1.469576158976824144E-15, 7.000000000000000000 ) ) ;
#176 = DIRECTION ( 'NONE',  ( -0.000000000000000000, -0.000000000000000000, -1.000000000000000000 ) ) ;
#177 = COORDINATED_UNIVERSAL_TIME_OFFSET ( 1, 0, .AHEAD. ) ;
#178 = ORIENTED_EDGE ( 'NONE', *, *, #243, .T. ) ;
#179 = EDGE_LOOP ( 'NONE', ( #49, #162, #153, #245 ) ) ;
#180 = PERSON_AND_ORGANIZATION_ROLE ( 'classification_officer' ) ;
#181 = DIRECTION ( 'NONE',  ( 0.000000000000000000, 0.000000000000000000, 1.000000000000000000 ) ) ;
#182 = VERTEX_POINT ( 'NONE', #116 ) ;
#183 = VECTOR ( 'NONE', #217, 1000.000000000000000 ) ;
#184 = ADVANCED_FACE ( 'NONE', ( #241 ), #42, .T. ) ;
#185 = DIRECTION ( 'NONE',  ( 1.000000000000000000, 0.000000000000000000, 0.000000000000000000 ) ) ;
#186 = CYLINDRICAL_SURFACE ( 'NONE', #78, 9.000000000000000000 ) ;
#187 = EDGE_CURVE ( 'NONE', #250, #182, #109, .T. ) ;
#188 = DIRECTION ( 'NONE',  ( -1.000000000000000000, 0.000000000000000000, 0.000000000000000000 ) ) ;
#189 = APPROVAL_STATUS ( 'not_yet_approved' ) ;
#190 = CARTESIAN_POINT ( 'NONE',  ( 0.000000000000000000, 0.000000000000000000, 7.000000000000000000 ) ) ;
#191 = APPLICATION_PROTOCOL_DEFINITION ( 'international standard', 'config_control_design', 1994, #155 ) ;
#192 = VERTEX_POINT ( 'NONE', #83 ) ;
#193 = DIRECTION ( 'NONE',  ( 1.000000000000000000, 0.000000000000000000, 0.000000000000000000 ) ) ;
#194 = EDGE_CURVE ( 'NONE', #57, #60, #215, .T. ) ;
#195 = PERSON_AND_ORGANIZATION_ROLE ( 'creator' ) ;
#196 = AXIS2_PLACEMENT_3D ( 'NONE', #100, #25, #185 ) ;
#197 = DATE_TIME_ROLE ( 'classification_date' ) ;
#198 = DIRECTION ( 'NONE',  ( 0.000000000000000000, 0.000000000000000000, 1.000000000000000000 ) ) ;
#199 = VECTOR ( 'NONE', #90, 1000.000000000000000 ) ;
#200 = APPROVAL_PERSON_ORGANIZATION ( #23, #212, #68 ) ;
#201 = UNCERTAINTY_MEASURE_WITH_UNIT (LENGTH_MEASURE( 1.000000000000000082E-05 ), #122, 'distance_accuracy_value', 'NONE');
#202 = VECTOR ( 'NONE', #173, 1000.000000000000000 ) ;
#203 =( NAMED_UNIT ( * ) PLANE_ANGLE_UNIT ( ) SI_UNIT ( $, .RADIAN. ) );
#204 = CARTESIAN_POINT ( 'NONE',  ( 0.000000000000000000, 0.000000000000000000, 7.000000000000000000 ) ) ;
#205 = CARTESIAN_POINT ( 'NONE',  ( 0.000000000000000000, 0.000000000000000000, 800.0000000000000000 ) ) ;
#206 = APPROVAL_PERSON_ORGANIZATION ( #91, #121, #114 ) ;
#207 = DIRECTION ( 'NONE',  ( 1.000000000000000000, 0.000000000000000000, 0.000000000000000000 ) ) ;
#208 = CC_DESIGN_PERSON_AND_ORGANIZATION_ASSIGNMENT ( #5, #209, ( #223 ) ) ;
#209 = PERSON_AND_ORGANIZATION_ROLE ( 'design_owner' ) ;
#210 = ORIENTED_EDGE ( 'NONE', *, *, #132, .F. ) ;
#211 = DIRECTION ( 'NONE',  ( 0.000000000000000000, 0.000000000000000000, 1.000000000000000000 ) ) ;
#212 = APPROVAL ( #189, 'NEURÈENÝ' ) ;
#213 = CIRCLE ( 'NONE', #94, 12.00000000000000178 ) ;
#214 = LINE ( 'NONE', #154, #199 ) ;
#215 = CIRCLE ( 'NONE', #43, 9.000000000000000000 ) ;
#216 = CARTESIAN_POINT ( 'NONE',  ( 0.000000000000000000, 0.000000000000000000, 7.000000000000000000 ) ) ;
#217 = DIRECTION ( 'NONE',  ( -0.000000000000000000, -0.000000000000000000, -1.000000000000000000 ) ) ;
#218 = CIRCLE ( 'NONE', #84, 12.00000000000000178 ) ;
#219 = ORIENTED_EDGE ( 'NONE', *, *, #54, .F. ) ;
#220 = LOCAL_TIME ( 8, 55, 11.00000000000000000, #106 ) ;
#221 = APPROVAL ( #105, 'NEURÈENÝ' ) ;
#222 = FACE_OUTER_BOUND ( 'NONE', #65, .T. ) ;
#223 = PRODUCT ( 'b5a0', 'b5a0', '', ( #48 ) ) ;
#224 = PLANE ( 'NONE',  #58 ) ;
#225 = DIRECTION ( 'NONE',  ( 0.000000000000000000, 0.000000000000000000, 1.000000000000000000 ) ) ;
#226 = CIRCLE ( 'NONE', #32, 12.00000000000000178 ) ;
#227 = CARTESIAN_POINT ( 'NONE',  ( 9.000000000000000000, 1.102182119232617714E-15, 800.0000000000000000 ) ) ;
#228 = CARTESIAN_POINT ( 'NONE',  ( 12.00000000000000178, 1.469576158976824144E-15, 0.000000000000000000 ) ) ;
#229 = ADVANCED_FACE ( 'NONE', ( #222 ), #186, .T. ) ;
#230 = DIRECTION ( 'NONE',  ( 0.000000000000000000, 0.000000000000000000, 1.000000000000000000 ) ) ;
#231 = CARTESIAN_POINT ( 'NONE',  ( -9.000000000000000000, 0.000000000000000000, 800.0000000000000000 ) ) ;
#232 = APPROVAL_DATE_TIME ( #149, #221 ) ;
#233 = ORIENTED_EDGE ( 'NONE', *, *, #163, .T. ) ;
#234 = DIRECTION ( 'NONE',  ( 0.000000000000000000, 0.000000000000000000, 1.000000000000000000 ) ) ;
#235 = DIRECTION ( 'NONE',  ( 1.000000000000000000, 0.000000000000000000, 0.000000000000000000 ) ) ;
#236 = COORDINATED_UNIVERSAL_TIME_OFFSET ( 1, 0, .AHEAD. ) ;
#237 = FACE_OUTER_BOUND ( 'NONE', #128, .T. ) ;
#238 = CIRCLE ( 'NONE', #107, 9.000000000000000000 ) ;
#239 = CC_DESIGN_PERSON_AND_ORGANIZATION_ASSIGNMENT ( #50, #180, ( #21 ) ) ;
#240 = LOCAL_TIME ( 8, 55, 11.00000000000000000, #177 ) ;
#241 = FACE_OUTER_BOUND ( 'NONE', #16, .T. ) ;
#242 = CYLINDRICAL_SURFACE ( 'NONE', #168, 12.00000000000000178 ) ;
#243 = EDGE_CURVE ( 'NONE', #60, #57, #140, .T. ) ;
#244 = PERSON_AND_ORGANIZATION_ROLE ( 'creator' ) ;
#245 = ORIENTED_EDGE ( 'NONE', *, *, #54, .T. ) ;
#246 = CARTESIAN_POINT ( 'NONE',  ( 0.000000000000000000, 0.000000000000000000, 7.000000000000000000 ) ) ;
#247 = DIRECTION ( 'NONE',  ( -0.000000000000000000, -0.000000000000000000, -1.000000000000000000 ) ) ;
#248 = CARTESIAN_POINT ( 'NONE',  ( 0.000000000000000000, 0.000000000000000000, 800.0000000000000000 ) ) ;
#249 = DIRECTION ( 'NONE',  ( 0.000000000000000000, 0.000000000000000000, 1.000000000000000000 ) ) ;
#250 = VERTEX_POINT ( 'NONE', #11 ) ;
#251 = VECTOR ( 'NONE', #41, 1000.000000000000000 ) ;
#252 = DIRECTION ( 'NONE',  ( -1.000000000000000000, 0.000000000000000000, 0.000000000000000000 ) ) ;
#253 = CALENDAR_DATE ( 2023, 13, 2 ) ;
#254 = CC_DESIGN_APPROVAL ( #212, ( #95 ) ) ;
#255 = CARTESIAN_POINT ( 'NONE',  ( 0.000000000000000000, 0.000000000000000000, 0.000000000000000000 ) ) ;
ENDSEC;
END-ISO-10303-21;
