ISO-10303-21;
HEADER;
FILE_DESCRIPTION (( 'STEP AP203' ),
    '1' );
FILE_NAME ('e7fd.STEP',
    '2023-01-31T14:31:53',
    ( '' ),
    ( '' ),
    'SwSTEP 2.0',
    'SolidWorks 2019',
    '' );
FILE_SCHEMA (( 'CONFIG_CONTROL_DESIGN' ));
ENDSEC;

DATA;
#1 = ORIENTED_EDGE ( 'NONE', *, *, #22, .T. ) ;
#2 = PLANE ( 'NONE',  #24 ) ;
#3 = AXIS2_PLACEMENT_3D ( 'NONE', #101, #63, #216 ) ;
#4 = DIRECTION ( 'NONE',  ( 0.000000000000000000, 0.000000000000000000, 1.000000000000000000 ) ) ;
#5 = AXIS2_PLACEMENT_3D ( 'NONE', #217, #4, #50 ) ;
#6 = CARTESIAN_POINT ( 'NONE',  ( 1.250000000000000000, 1.530808498934191571E-16, 1.199999999999999956 ) ) ;
#7 = DIRECTION ( 'NONE',  ( -0.000000000000000000, -0.000000000000000000, -1.000000000000000000 ) ) ;
#8 = FACE_OUTER_BOUND ( 'NONE', #16, .T. ) ;
#9 = AXIS2_PLACEMENT_3D ( 'NONE', #80, #88, #188 ) ;
#10 = DATE_AND_TIME ( #244, #197 ) ;
#11 = PRODUCT_RELATED_PRODUCT_CATEGORY ( 'detail', '', ( #104 ) ) ;
#12 = APPROVAL_STATUS ( 'not_yet_approved' ) ;
#13 = COORDINATED_UNIVERSAL_TIME_OFFSET ( 1, 0, .AHEAD. ) ;
#14 = CALENDAR_DATE ( 2023, 31, 1 ) ;
#15 = EDGE_CURVE ( 'NONE', #150, #94, #185, .T. ) ;
#16 = EDGE_LOOP ( 'NONE', ( #128, #234 ) ) ;
#17 = VECTOR ( 'NONE', #137, 1000.000000000000000 ) ;
#18 = VERTEX_POINT ( 'NONE', #236 ) ;
#19 = ORIENTED_EDGE ( 'NONE', *, *, #55, .T. ) ;
#20 = EDGE_LOOP ( 'NONE', ( #168, #100, #41, #190 ) ) ;
#21 = AXIS2_PLACEMENT_3D ( 'NONE', #238, #194, #219 ) ;
#22 = EDGE_CURVE ( 'NONE', #253, #114, #95, .T. ) ;
#23 = CARTESIAN_POINT ( 'NONE',  ( 0.000000000000000000, 0.000000000000000000, 0.000000000000000000 ) ) ;
#24 = AXIS2_PLACEMENT_3D ( 'NONE', #162, #241, #81 ) ;
#25 = LINE ( 'NONE', #224, #17 ) ;
#26 = MANIFOLD_SOLID_BREP ( 'Pøidat vysunutím3', #145 ) ;
#27 = DIRECTION ( 'NONE',  ( -0.000000000000000000, -0.000000000000000000, -1.000000000000000000 ) ) ;
#28 = DIRECTION ( 'NONE',  ( 0.000000000000000000, 0.000000000000000000, 1.000000000000000000 ) ) ;
#29 = DIRECTION ( 'NONE',  ( 1.000000000000000000, 0.000000000000000000, -0.000000000000000000 ) ) ;
#30 = CIRCLE ( 'NONE', #153, 0.5000000000000000000 ) ;
#31 = MECHANICAL_CONTEXT ( 'NONE', #227, 'mechanical' ) ;
#32 = LOCAL_TIME ( 15, 31, 53.00000000000000000, #246 ) ;
#33 = DATE_TIME_ROLE ( 'classification_date' ) ;
#34 = PERSON_AND_ORGANIZATION ( #107, #58 ) ;
#35 = PERSON_AND_ORGANIZATION_ROLE ( 'design_owner' ) ;
#36 = APPROVAL_DATE_TIME ( #231, #91 ) ;
#37 = DIRECTION ( 'NONE',  ( -1.000000000000000000, 0.000000000000000000, 0.000000000000000000 ) ) ;
#38 = AXIS2_PLACEMENT_3D ( 'NONE', #196, #103, #59 ) ;
#39 = VERTEX_POINT ( 'NONE', #154 ) ;
#40 = AXIS2_PLACEMENT_3D ( 'NONE', #176, #78, #83 ) ;
#41 = ORIENTED_EDGE ( 'NONE', *, *, #182, .T. ) ;
#42 = AXIS2_PLACEMENT_3D ( 'NONE', #127, #112, #192 ) ;
#43 = ADVANCED_FACE ( 'NONE', ( #70 ), #148, .T. ) ;
#44 = ORIENTED_EDGE ( 'NONE', *, *, #218, .F. ) ;
#45 = CARTESIAN_POINT ( 'NONE',  ( 0.000000000000000000, 0.000000000000000000, 1.199999999999999956 ) ) ;
#46 = PLANE ( 'NONE',  #21 ) ;
#47 = CARTESIAN_POINT ( 'NONE',  ( 0.000000000000000000, 0.000000000000000000, 1.199999999999999956 ) ) ;
#48 = CIRCLE ( 'NONE', #5, 1.250000000000000000 ) ;
#49 = FACE_OUTER_BOUND ( 'NONE', #56, .T. ) ;
#50 = DIRECTION ( 'NONE',  ( 1.000000000000000000, 0.000000000000000000, 0.000000000000000000 ) ) ;
#51 = PERSON_AND_ORGANIZATION ( #107, #58 ) ;
#52 = DIRECTION ( 'NONE',  ( 0.000000000000000000, 0.000000000000000000, 1.000000000000000000 ) ) ;
#53 = APPROVAL_DATE_TIME ( #229, #178 ) ;
#54 = ORIENTED_EDGE ( 'NONE', *, *, #55, .F. ) ;
#55 = EDGE_CURVE ( 'NONE', #114, #18, #121, .T. ) ;
#56 = EDGE_LOOP ( 'NONE', ( #233, #93 ) ) ;
#57 = ORIENTED_EDGE ( 'NONE', *, *, #96, .F. ) ;
#58 = ORGANIZATION ( 'NEURÈENÝ', 'NEURÈENÝ', '' ) ;
#59 = DIRECTION ( 'NONE',  ( 1.000000000000000000, 0.000000000000000000, 0.000000000000000000 ) ) ;
#60 = CARTESIAN_POINT ( 'NONE',  ( 1.250000000000000000, 1.530808498934191571E-16, 0.000000000000000000 ) ) ;
#61 = CARTESIAN_POINT ( 'NONE',  ( -0.5000000000000000000, 0.000000000000000000, 100.0000000000000000 ) ) ;
#62 = APPLICATION_CONTEXT ( 'configuration controlled 3d designs of mechanical parts and assemblies' ) ;
#63 = DIRECTION ( 'NONE',  ( 0.000000000000000000, 0.000000000000000000, 1.000000000000000000 ) ) ;
#64 = CARTESIAN_POINT ( 'NONE',  ( 0.5000000000000000000, 6.123233995736766036E-17, 1.199999999999999956 ) ) ;
#65 = CC_DESIGN_DATE_AND_TIME_ASSIGNMENT ( #141, #33, ( #89 ) ) ;
#66 = PERSON_AND_ORGANIZATION ( #107, #58 ) ;
#67 = DATE_AND_TIME ( #14, #32 ) ;
#68 = PRODUCT_DEFINITION_FORMATION_WITH_SPECIFIED_SOURCE ( 'LIBOVOLNÝ', '', #104, .NOT_KNOWN. ) ;
#69 = CC_DESIGN_PERSON_AND_ORGANIZATION_ASSIGNMENT ( #108, #202, ( #89 ) ) ;
#70 = FACE_OUTER_BOUND ( 'NONE', #20, .T. ) ;
#71 = EDGE_CURVE ( 'NONE', #174, #253, #30, .T. ) ;
#72 = COORDINATED_UNIVERSAL_TIME_OFFSET ( 1, 0, .AHEAD. ) ;
#73 = ORIENTED_EDGE ( 'NONE', *, *, #242, .T. ) ;
#74 = EDGE_LOOP ( 'NONE', ( #252, #211, #155, #213 ) ) ;
#75 = ORIENTED_EDGE ( 'NONE', *, *, #249, .F. ) ;
#76 = LOCAL_TIME ( 15, 31, 53.00000000000000000, #86 ) ;
#77 = VERTEX_POINT ( 'NONE', #120 ) ;
#78 = DIRECTION ( 'NONE',  ( 0.000000000000000000, 0.000000000000000000, 1.000000000000000000 ) ) ;
#79 = DIRECTION ( 'NONE',  ( -0.000000000000000000, -0.000000000000000000, -1.000000000000000000 ) ) ;
#80 = CARTESIAN_POINT ( 'NONE',  ( 0.000000000000000000, 0.000000000000000000, 1.199999999999999956 ) ) ;
#81 = DIRECTION ( 'NONE',  ( 1.000000000000000000, 0.000000000000000000, -0.000000000000000000 ) ) ;
#82 = ADVANCED_BREP_SHAPE_REPRESENTATION ( 'e7fd', ( #26, #215 ), #135 ) ;
#83 = DIRECTION ( 'NONE',  ( 1.000000000000000000, 0.000000000000000000, 0.000000000000000000 ) ) ;
#84 = ADVANCED_FACE ( 'NONE', ( #159 ), #138, .T. ) ;
#85 = DIRECTION ( 'NONE',  ( 1.000000000000000000, 0.000000000000000000, 0.000000000000000000 ) ) ;
#86 = COORDINATED_UNIVERSAL_TIME_OFFSET ( 1, 0, .AHEAD. ) ;
#87 = VECTOR ( 'NONE', #7, 1000.000000000000000 ) ;
#88 = DIRECTION ( 'NONE',  ( 0.000000000000000000, 0.000000000000000000, 1.000000000000000000 ) ) ;
#89 = SECURITY_CLASSIFICATION ( '', '', #122 ) ;
#90 = DATE_TIME_ROLE ( 'creation_date' ) ;
#91 = APPROVAL ( #12, 'NEURÈENÝ' ) ;
#92 = APPROVAL_PERSON_ORGANIZATION ( #34, #119, #243 ) ;
#93 = ORIENTED_EDGE ( 'NONE', *, *, #96, .T. ) ;
#94 = VERTEX_POINT ( 'NONE', #60 ) ;
#95 = LINE ( 'NONE', #171, #220 ) ;
#96 = EDGE_CURVE ( 'NONE', #253, #174, #158, .T. ) ;
#97 = ORIENTED_EDGE ( 'NONE', *, *, #218, .T. ) ;
#98 = LOCAL_TIME ( 15, 31, 53.00000000000000000, #248 ) ;
#99 = DESIGN_CONTEXT ( 'detailed design', #62, 'design' ) ;
#100 = ORIENTED_EDGE ( 'NONE', *, *, #71, .F. ) ;
#101 = CARTESIAN_POINT ( 'NONE',  ( 0.000000000000000000, 0.000000000000000000, 100.0000000000000000 ) ) ;
#102 = DIRECTION ( 'NONE',  ( 1.000000000000000000, 0.000000000000000000, 0.000000000000000000 ) ) ;
#103 = DIRECTION ( 'NONE',  ( 0.000000000000000000, 0.000000000000000000, 1.000000000000000000 ) ) ;
#104 = PRODUCT ( 'e7fd', 'e7fd', '', ( #31 ) ) ;
#105 = LINE ( 'NONE', #6, #165 ) ;
#106 = LINE ( 'NONE', #61, #87 ) ;
#107 = PERSON ( 'NEURÈENÝ', 'NEURÈENÝ', 'NEURÈENÝ', ('NEURÈENÝ'), ('NEURÈENÝ'), ('NEURÈENÝ') ) ;
#108 = PERSON_AND_ORGANIZATION ( #107, #58 ) ;
#109 = PERSON_AND_ORGANIZATION ( #107, #58 ) ;
#110 = ADVANCED_FACE ( 'NONE', ( #193, #237 ), #2, .T. ) ;
#111 = CIRCLE ( 'NONE', #40, 1.250000000000000000 ) ;
#112 = DIRECTION ( 'NONE',  ( 0.000000000000000000, 0.000000000000000000, 1.000000000000000000 ) ) ;
#113 = EDGE_LOOP ( 'NONE', ( #75, #54 ) ) ;
#114 = VERTEX_POINT ( 'NONE', #64 ) ;
#115 = PLANE ( 'NONE',  #142 ) ;
#116 = CARTESIAN_POINT ( 'NONE',  ( 0.000000000000000000, 0.000000000000000000, 100.0000000000000000 ) ) ;
#117 = CARTESIAN_POINT ( 'NONE',  ( -1.250000000000000000, 0.000000000000000000, 0.000000000000000000 ) ) ;
#118 = CYLINDRICAL_SURFACE ( 'NONE', #195, 1.250000000000000000 ) ;
#119 = APPROVAL ( #183, 'NEURÈENÝ' ) ;
#120 = CARTESIAN_POINT ( 'NONE',  ( -1.250000000000000000, 0.000000000000000000, 1.199999999999999956 ) ) ;
#121 = CIRCLE ( 'NONE', #38, 0.5000000000000000000 ) ;
#122 = SECURITY_CLASSIFICATION_LEVEL ( 'unclassified' ) ;
#123 = PERSON_AND_ORGANIZATION ( #107, #58 ) ;
#124 = CC_DESIGN_PERSON_AND_ORGANIZATION_ASSIGNMENT ( #125, #206, ( #68 ) ) ;
#125 = PERSON_AND_ORGANIZATION ( #107, #58 ) ;
#126 = CC_DESIGN_SECURITY_CLASSIFICATION ( #89, ( #68 ) ) ;
#127 = CARTESIAN_POINT ( 'NONE',  ( 0.000000000000000000, 0.000000000000000000, 0.000000000000000000 ) ) ;
#128 = ORIENTED_EDGE ( 'NONE', *, *, #15, .F. ) ;
#129 = AXIS2_PLACEMENT_3D ( 'NONE', #23, #221, #102 ) ;
#130 = ORIENTED_EDGE ( 'NONE', *, *, #223, .T. ) ;
#131 = CC_DESIGN_PERSON_AND_ORGANIZATION_ASSIGNMENT ( #225, #226, ( #68 ) ) ;
#132 = EDGE_LOOP ( 'NONE', ( #73, #97 ) ) ;
#133 = ADVANCED_FACE ( 'NONE', ( #157 ), #118, .T. ) ;
#134 = FACE_OUTER_BOUND ( 'NONE', #191, .T. ) ;
#135 =( GEOMETRIC_REPRESENTATION_CONTEXT ( 3 ) GLOBAL_UNCERTAINTY_ASSIGNED_CONTEXT ( ( #189 ) ) GLOBAL_UNIT_ASSIGNED_CONTEXT ( ( #181, #140, #146 ) ) REPRESENTATION_CONTEXT ( 'NONE', 'WORKASPACE' ) );
#136 = CYLINDRICAL_SURFACE ( 'NONE', #254, 0.5000000000000000000 ) ;
#137 = DIRECTION ( 'NONE',  ( -0.000000000000000000, -0.000000000000000000, -1.000000000000000000 ) ) ;
#138 = CYLINDRICAL_SURFACE ( 'NONE', #245, 1.250000000000000000 ) ;
#139 = DIRECTION ( 'NONE',  ( -1.000000000000000000, 0.000000000000000000, 0.000000000000000000 ) ) ;
#140 =( NAMED_UNIT ( * ) PLANE_ANGLE_UNIT ( ) SI_UNIT ( $, .RADIAN. ) );
#141 = DATE_AND_TIME ( #163, #76 ) ;
#142 = AXIS2_PLACEMENT_3D ( 'NONE', #198, #28, #29 ) ;
#143 = APPROVAL_ROLE ( '' ) ;
#144 = CARTESIAN_POINT ( 'NONE',  ( 0.000000000000000000, 0.000000000000000000, 0.000000000000000000 ) ) ;
#145 = CLOSED_SHELL ( 'NONE', ( #169, #133, #84, #110, #230, #43, #212 ) ) ;
#146 =( NAMED_UNIT ( * ) SI_UNIT ( $, .STERADIAN. ) SOLID_ANGLE_UNIT ( ) );
#147 = CC_DESIGN_APPROVAL ( #91, ( #89 ) ) ;
#148 = CYLINDRICAL_SURFACE ( 'NONE', #167, 0.5000000000000000000 ) ;
#149 = SHAPE_DEFINITION_REPRESENTATION ( #201, #82 ) ;
#150 = VERTEX_POINT ( 'NONE', #117 ) ;
#151 = CC_DESIGN_DATE_AND_TIME_ASSIGNMENT ( #67, #90, ( #173 ) ) ;
#152 = ORIENTED_EDGE ( 'NONE', *, *, #182, .F. ) ;
#153 = AXIS2_PLACEMENT_3D ( 'NONE', #116, #161, #240 ) ;
#154 = CARTESIAN_POINT ( 'NONE',  ( 1.250000000000000000, 1.530808498934191571E-16, 1.199999999999999956 ) ) ;
#155 = ORIENTED_EDGE ( 'NONE', *, *, #204, .T. ) ;
#156 = CC_DESIGN_PERSON_AND_ORGANIZATION_ASSIGNMENT ( #66, #164, ( #173 ) ) ;
#157 = FACE_OUTER_BOUND ( 'NONE', #172, .T. ) ;
#158 = CIRCLE ( 'NONE', #3, 0.5000000000000000000 ) ;
#159 = FACE_OUTER_BOUND ( 'NONE', #74, .T. ) ;
#160 = DIRECTION ( 'NONE',  ( -0.000000000000000000, -0.000000000000000000, -1.000000000000000000 ) ) ;
#161 = DIRECTION ( 'NONE',  ( 0.000000000000000000, 0.000000000000000000, 1.000000000000000000 ) ) ;
#162 = CARTESIAN_POINT ( 'NONE',  ( 0.000000000000000000, 0.000000000000000000, 1.199999999999999956 ) ) ;
#163 = CALENDAR_DATE ( 2023, 31, 1 ) ;
#164 = PERSON_AND_ORGANIZATION_ROLE ( 'creator' ) ;
#165 = VECTOR ( 'NONE', #79, 1000.000000000000000 ) ;
#166 = APPROVAL_STATUS ( 'not_yet_approved' ) ;
#167 = AXIS2_PLACEMENT_3D ( 'NONE', #232, #207, #37 ) ;
#168 = ORIENTED_EDGE ( 'NONE', *, *, #22, .F. ) ;
#169 = ADVANCED_FACE ( 'NONE', ( #134 ), #136, .T. ) ;
#170 = ORIENTED_EDGE ( 'NONE', *, *, #199, .T. ) ;
#171 = CARTESIAN_POINT ( 'NONE',  ( 0.5000000000000000000, 6.123233995736766036E-17, 100.0000000000000000 ) ) ;
#172 = EDGE_LOOP ( 'NONE', ( #44, #130, #170, #208 ) ) ;
#173 = PRODUCT_DEFINITION ( 'NEZNÁMÝ', '', #68, #99 ) ;
#174 = VERTEX_POINT ( 'NONE', #200 ) ;
#175 = CARTESIAN_POINT ( 'NONE',  ( 0.000000000000000000, 0.000000000000000000, 100.0000000000000000 ) ) ;
#176 = CARTESIAN_POINT ( 'NONE',  ( 0.000000000000000000, 0.000000000000000000, 1.199999999999999956 ) ) ;
#177 = APPROVAL_PERSON_ORGANIZATION ( #51, #178, #143 ) ;
#178 = APPROVAL ( #166, 'NEURÈENÝ' ) ;
#179 = DIRECTION ( 'NONE',  ( -1.000000000000000000, 0.000000000000000000, 0.000000000000000000 ) ) ;
#180 = DIRECTION ( 'NONE',  ( -0.000000000000000000, -0.000000000000000000, -1.000000000000000000 ) ) ;
#181 =( LENGTH_UNIT ( ) NAMED_UNIT ( * ) SI_UNIT ( .MILLI., .METRE. ) );
#182 = EDGE_CURVE ( 'NONE', #174, #18, #106, .T. ) ;
#183 = APPROVAL_STATUS ( 'not_yet_approved' ) ;
#184 = CARTESIAN_POINT ( 'NONE',  ( 0.5000000000000000000, 6.123233995736766036E-17, 100.0000000000000000 ) ) ;
#185 = CIRCLE ( 'NONE', #42, 1.250000000000000000 ) ;
#186 = APPLICATION_PROTOCOL_DEFINITION ( 'international standard', 'config_control_design', 1994, #227 ) ;
#187 = CC_DESIGN_APPROVAL ( #119, ( #173 ) ) ;
#188 = DIRECTION ( 'NONE',  ( 1.000000000000000000, 0.000000000000000000, 0.000000000000000000 ) ) ;
#189 = UNCERTAINTY_MEASURE_WITH_UNIT (LENGTH_MEASURE( 1.000000000000000082E-05 ), #181, 'distance_accuracy_value', 'NONE');
#190 = ORIENTED_EDGE ( 'NONE', *, *, #249, .T. ) ;
#191 = EDGE_LOOP ( 'NONE', ( #57, #1, #19, #152 ) ) ;
#192 = DIRECTION ( 'NONE',  ( 1.000000000000000000, 0.000000000000000000, 0.000000000000000000 ) ) ;
#193 = FACE_BOUND ( 'NONE', #113, .T. ) ;
#194 = DIRECTION ( 'NONE',  ( 0.000000000000000000, 0.000000000000000000, 1.000000000000000000 ) ) ;
#195 = AXIS2_PLACEMENT_3D ( 'NONE', #45, #160, #139 ) ;
#196 = CARTESIAN_POINT ( 'NONE',  ( 0.000000000000000000, 0.000000000000000000, 1.199999999999999956 ) ) ;
#197 = LOCAL_TIME ( 15, 31, 53.00000000000000000, #13 ) ;
#198 = CARTESIAN_POINT ( 'NONE',  ( 0.000000000000000000, 0.000000000000000000, 100.0000000000000000 ) ) ;
#199 = EDGE_CURVE ( 'NONE', #94, #150, #250, .T. ) ;
#200 = CARTESIAN_POINT ( 'NONE',  ( -0.5000000000000000000, 0.000000000000000000, 100.0000000000000000 ) ) ;
#201 = PRODUCT_DEFINITION_SHAPE ( 'NONE', 'NONE',  #173 ) ;
#202 = PERSON_AND_ORGANIZATION_ROLE ( 'classification_officer' ) ;
#203 = APPLICATION_PROTOCOL_DEFINITION ( 'international standard', 'config_control_design', 1994, #62 ) ;
#204 = EDGE_CURVE ( 'NONE', #77, #150, #25, .T. ) ;
#205 = APPROVAL_DATE_TIME ( #10, #119 ) ;
#206 = PERSON_AND_ORGANIZATION_ROLE ( 'design_supplier' ) ;
#207 = DIRECTION ( 'NONE',  ( -0.000000000000000000, -0.000000000000000000, -1.000000000000000000 ) ) ;
#208 = ORIENTED_EDGE ( 'NONE', *, *, #204, .F. ) ;
#209 = LOCAL_TIME ( 15, 31, 53.00000000000000000, #72 ) ;
#210 = APPROVAL_ROLE ( '' ) ;
#211 = ORIENTED_EDGE ( 'NONE', *, *, #242, .F. ) ;
#212 = ADVANCED_FACE ( 'NONE', ( #49 ), #115, .T. ) ;
#213 = ORIENTED_EDGE ( 'NONE', *, *, #15, .T. ) ;
#214 = CC_DESIGN_APPROVAL ( #178, ( #68 ) ) ;
#215 = AXIS2_PLACEMENT_3D ( 'NONE', #144, #52, #85 ) ;
#216 = DIRECTION ( 'NONE',  ( 1.000000000000000000, 0.000000000000000000, 0.000000000000000000 ) ) ;
#217 = CARTESIAN_POINT ( 'NONE',  ( 0.000000000000000000, 0.000000000000000000, 1.199999999999999956 ) ) ;
#218 = EDGE_CURVE ( 'NONE', #39, #77, #48, .T. ) ;
#219 = DIRECTION ( 'NONE',  ( 1.000000000000000000, 0.000000000000000000, -0.000000000000000000 ) ) ;
#220 = VECTOR ( 'NONE', #255, 1000.000000000000000 ) ;
#221 = DIRECTION ( 'NONE',  ( 0.000000000000000000, 0.000000000000000000, 1.000000000000000000 ) ) ;
#222 = APPROVAL_PERSON_ORGANIZATION ( #109, #91, #210 ) ;
#223 = EDGE_CURVE ( 'NONE', #39, #94, #105, .T. ) ;
#224 = CARTESIAN_POINT ( 'NONE',  ( -1.250000000000000000, 0.000000000000000000, 1.199999999999999956 ) ) ;
#225 = PERSON_AND_ORGANIZATION ( #107, #58 ) ;
#226 = PERSON_AND_ORGANIZATION_ROLE ( 'creator' ) ;
#227 = APPLICATION_CONTEXT ( 'configuration controlled 3d designs of mechanical parts and assemblies' ) ;
#228 = CALENDAR_DATE ( 2023, 31, 1 ) ;
#229 = DATE_AND_TIME ( #228, #98 ) ;
#230 = ADVANCED_FACE ( 'NONE', ( #8 ), #46, .F. ) ;
#231 = DATE_AND_TIME ( #251, #209 ) ;
#232 = CARTESIAN_POINT ( 'NONE',  ( 0.000000000000000000, 0.000000000000000000, 100.0000000000000000 ) ) ;
#233 = ORIENTED_EDGE ( 'NONE', *, *, #71, .T. ) ;
#234 = ORIENTED_EDGE ( 'NONE', *, *, #199, .F. ) ;
#235 = CC_DESIGN_PERSON_AND_ORGANIZATION_ASSIGNMENT ( #123, #35, ( #104 ) ) ;
#236 = CARTESIAN_POINT ( 'NONE',  ( -0.5000000000000000000, 0.000000000000000000, 1.199999999999999956 ) ) ;
#237 = FACE_OUTER_BOUND ( 'NONE', #132, .T. ) ;
#238 = CARTESIAN_POINT ( 'NONE',  ( 0.000000000000000000, 0.000000000000000000, 0.000000000000000000 ) ) ;
#239 = DIRECTION ( 'NONE',  ( -1.000000000000000000, 0.000000000000000000, 0.000000000000000000 ) ) ;
#240 = DIRECTION ( 'NONE',  ( 1.000000000000000000, 0.000000000000000000, 0.000000000000000000 ) ) ;
#241 = DIRECTION ( 'NONE',  ( 0.000000000000000000, 0.000000000000000000, 1.000000000000000000 ) ) ;
#242 = EDGE_CURVE ( 'NONE', #77, #39, #111, .T. ) ;
#243 = APPROVAL_ROLE ( '' ) ;
#244 = CALENDAR_DATE ( 2023, 31, 1 ) ;
#245 = AXIS2_PLACEMENT_3D ( 'NONE', #47, #27, #179 ) ;
#246 = COORDINATED_UNIVERSAL_TIME_OFFSET ( 1, 0, .AHEAD. ) ;
#247 = CIRCLE ( 'NONE', #9, 0.5000000000000000000 ) ;
#248 = COORDINATED_UNIVERSAL_TIME_OFFSET ( 1, 0, .AHEAD. ) ;
#249 = EDGE_CURVE ( 'NONE', #18, #114, #247, .T. ) ;
#250 = CIRCLE ( 'NONE', #129, 1.250000000000000000 ) ;
#251 = CALENDAR_DATE ( 2023, 31, 1 ) ;
#252 = ORIENTED_EDGE ( 'NONE', *, *, #223, .F. ) ;
#253 = VERTEX_POINT ( 'NONE', #184 ) ;
#254 = AXIS2_PLACEMENT_3D ( 'NONE', #175, #180, #239 ) ;
#255 = DIRECTION ( 'NONE',  ( -0.000000000000000000, -0.000000000000000000, -1.000000000000000000 ) ) ;
ENDSEC;
END-ISO-10303-21;
