ISO-10303-21;
HEADER;
FILE_DESCRIPTION (( 'STEP AP203' ),
    '1' );
FILE_NAME ('2596.STEP',
    '2023-02-13T09:20:59',
    ( '' ),
    ( '' ),
    'SwSTEP 2.0',
    'SolidWorks 2019',
    '' );
FILE_SCHEMA (( 'CONFIG_CONTROL_DESIGN' ));
ENDSEC;

DATA;
#1 = DIRECTION ( 'NONE',  ( -1.000000000000000000, 0.000000000000000000, 0.000000000000000000 ) ) ;
#2 = EDGE_CURVE ( 'NONE', #68, #190, #101, .T. ) ;
#3 = DIRECTION ( 'NONE',  ( 0.000000000000000000, 0.000000000000000000, 1.000000000000000000 ) ) ;
#4 = DATE_AND_TIME ( #140, #253 ) ;
#5 = DIRECTION ( 'NONE',  ( 0.000000000000000000, 0.000000000000000000, 1.000000000000000000 ) ) ;
#6 = PLANE ( 'NONE',  #182 ) ;
#7 = EDGE_CURVE ( 'NONE', #212, #93, #110, .T. ) ;
#8 = DIRECTION ( 'NONE',  ( 1.000000000000000000, 0.000000000000000000, 0.000000000000000000 ) ) ;
#9 = CC_DESIGN_APPROVAL ( #173, ( #118 ) ) ;
#10 = APPROVAL ( #62, 'NEURÈENÝ' ) ;
#11 = CIRCLE ( 'NONE', #175, 8.000000000000000000 ) ;
#12 = PERSON_AND_ORGANIZATION ( #61, #15 ) ;
#13 = APPROVAL_ROLE ( '' ) ;
#14 = DIRECTION ( 'NONE',  ( 0.000000000000000000, 0.000000000000000000, 1.000000000000000000 ) ) ;
#15 = ORGANIZATION ( 'NEURÈENÝ', 'NEURÈENÝ', '' ) ;
#16 = DIRECTION ( 'NONE',  ( 0.000000000000000000, 0.000000000000000000, 1.000000000000000000 ) ) ;
#17 = EDGE_LOOP ( 'NONE', ( #169, #112, #166, #135 ) ) ;
#18 = VERTEX_POINT ( 'NONE', #198 ) ;
#19 = VECTOR ( 'NONE', #137, 1000.000000000000000 ) ;
#20 = CARTESIAN_POINT ( 'NONE',  ( 0.000000000000000000, 0.000000000000000000, 250.0000000000000000 ) ) ;
#21 = FACE_OUTER_BOUND ( 'NONE', #129, .T. ) ;
#22 = ORIENTED_EDGE ( 'NONE', *, *, #167, .F. ) ;
#23 = DIRECTION ( 'NONE',  ( 0.000000000000000000, 0.000000000000000000, 1.000000000000000000 ) ) ;
#24 = CC_DESIGN_APPROVAL ( #10, ( #82 ) ) ;
#25 = APPROVAL_STATUS ( 'not_yet_approved' ) ;
#26 = PERSON_AND_ORGANIZATION_ROLE ( 'design_supplier' ) ;
#27 = DIRECTION ( 'NONE',  ( -0.000000000000000000, -0.000000000000000000, -1.000000000000000000 ) ) ;
#28 = CARTESIAN_POINT ( 'NONE',  ( 8.000000000000000000, 9.797174393178825657E-16, 7.000000000000000000 ) ) ;
#29 = AXIS2_PLACEMENT_3D ( 'NONE', #20, #92, #172 ) ;
#30 = CC_DESIGN_SECURITY_CLASSIFICATION ( #222, ( #118 ) ) ;
#31 = ADVANCED_BREP_SHAPE_REPRESENTATION ( '2596', ( #247, #66 ), #104 ) ;
#32 = ADVANCED_FACE ( 'NONE', ( #225 ), #230, .F. ) ;
#33 = ORIENTED_EDGE ( 'NONE', *, *, #74, .T. ) ;
#34 = DIRECTION ( 'NONE',  ( 0.000000000000000000, 0.000000000000000000, 1.000000000000000000 ) ) ;
#35 = DIRECTION ( 'NONE',  ( 0.000000000000000000, 0.000000000000000000, 1.000000000000000000 ) ) ;
#36 = ORIENTED_EDGE ( 'NONE', *, *, #51, .F. ) ;
#37 = ORIENTED_EDGE ( 'NONE', *, *, #151, .T. ) ;
#38 = COORDINATED_UNIVERSAL_TIME_OFFSET ( 1, 0, .AHEAD. ) ;
#39 = DIRECTION ( 'NONE',  ( -0.000000000000000000, -0.000000000000000000, -1.000000000000000000 ) ) ;
#40 = DIRECTION ( 'NONE',  ( 0.000000000000000000, 0.000000000000000000, 1.000000000000000000 ) ) ;
#41 = DATE_AND_TIME ( #63, #162 ) ;
#42 = PERSON_AND_ORGANIZATION_ROLE ( 'design_owner' ) ;
#43 = CYLINDRICAL_SURFACE ( 'NONE', #153, 8.000000000000000000 ) ;
#44 = CALENDAR_DATE ( 2023, 13, 2 ) ;
#45 = DATE_AND_TIME ( #184, #148 ) ;
#46 = CC_DESIGN_DATE_AND_TIME_ASSIGNMENT ( #41, #208, ( #222 ) ) ;
#47 = ADVANCED_FACE ( 'NONE', ( #21 ), #133, .T. ) ;
#48 = PRODUCT_DEFINITION_SHAPE ( 'NONE', 'NONE',  #82 ) ;
#49 = CARTESIAN_POINT ( 'NONE',  ( 0.000000000000000000, 0.000000000000000000, 7.000000000000000000 ) ) ;
#50 = ORIENTED_EDGE ( 'NONE', *, *, #107, .T. ) ;
#51 = EDGE_CURVE ( 'NONE', #89, #72, #75, .T. ) ;
#52 = DIRECTION ( 'NONE',  ( 0.000000000000000000, 0.000000000000000000, 1.000000000000000000 ) ) ;
#53 = ORIENTED_EDGE ( 'NONE', *, *, #2, .T. ) ;
#54 = DIRECTION ( 'NONE',  ( -0.000000000000000000, -0.000000000000000000, -1.000000000000000000 ) ) ;
#55 = CC_DESIGN_PERSON_AND_ORGANIZATION_ASSIGNMENT ( #202, #178, ( #82 ) ) ;
#56 = DIRECTION ( 'NONE',  ( -0.000000000000000000, -0.000000000000000000, -1.000000000000000000 ) ) ;
#57 = CIRCLE ( 'NONE', #84, 8.000000000000000000 ) ;
#58 = APPROVAL_ROLE ( '' ) ;
#59 = FACE_OUTER_BOUND ( 'NONE', #17, .T. ) ;
#60 = PERSON_AND_ORGANIZATION ( #61, #15 ) ;
#61 = PERSON ( 'NEURÈENÝ', 'NEURÈENÝ', 'NEURÈENÝ', ('NEURÈENÝ'), ('NEURÈENÝ'), ('NEURÈENÝ') ) ;
#62 = APPROVAL_STATUS ( 'not_yet_approved' ) ;
#63 = CALENDAR_DATE ( 2023, 13, 2 ) ;
#64 = CARTESIAN_POINT ( 'NONE',  ( 0.000000000000000000, 0.000000000000000000, 7.000000000000000000 ) ) ;
#65 = CC_DESIGN_PERSON_AND_ORGANIZATION_ASSIGNMENT ( #12, #200, ( #118 ) ) ;
#66 = AXIS2_PLACEMENT_3D ( 'NONE', #142, #40, #180 ) ;
#67 = ADVANCED_FACE ( 'NONE', ( #216 ), #43, .T. ) ;
#68 = VERTEX_POINT ( 'NONE', #183 ) ;
#69 = UNCERTAINTY_MEASURE_WITH_UNIT (LENGTH_MEASURE( 1.000000000000000082E-05 ), #255, 'distance_accuracy_value', 'NONE');
#70 = APPROVAL ( #25, 'NEURÈENÝ' ) ;
#71 = ORIENTED_EDGE ( 'NONE', *, *, #151, .F. ) ;
#72 = VERTEX_POINT ( 'NONE', #28 ) ;
#73 = PRODUCT ( '2596', '2596', '', ( #204 ) ) ;
#74 = EDGE_CURVE ( 'NONE', #111, #68, #238, .T. ) ;
#75 = LINE ( 'NONE', #157, #227 ) ;
#76 = CARTESIAN_POINT ( 'NONE',  ( 0.000000000000000000, 0.000000000000000000, 250.0000000000000000 ) ) ;
#77 = COORDINATED_UNIVERSAL_TIME_OFFSET ( 1, 0, .AHEAD. ) ;
#78 = CARTESIAN_POINT ( 'NONE',  ( 8.000000000000000000, 9.797174393178825657E-16, 250.0000000000000000 ) ) ;
#79 = DATE_TIME_ROLE ( 'creation_date' ) ;
#80 = CARTESIAN_POINT ( 'NONE',  ( -8.000000000000000000, 0.000000000000000000, 7.000000000000000000 ) ) ;
#81 = DIRECTION ( 'NONE',  ( 0.000000000000000000, 0.000000000000000000, 1.000000000000000000 ) ) ;
#82 = PRODUCT_DEFINITION ( 'NEZNÁMÝ', '', #118, #226 ) ;
#83 = AXIS2_PLACEMENT_3D ( 'NONE', #49, #54, #1 ) ;
#84 = AXIS2_PLACEMENT_3D ( 'NONE', #154, #14, #134 ) ;
#85 = AXIS2_PLACEMENT_3D ( 'NONE', #217, #39, #114 ) ;
#86 = APPLICATION_CONTEXT ( 'configuration controlled 3d designs of mechanical parts and assemblies' ) ;
#87 = CARTESIAN_POINT ( 'NONE',  ( 0.000000000000000000, 0.000000000000000000, 7.000000000000000000 ) ) ;
#88 = EDGE_LOOP ( 'NONE', ( #152, #199 ) ) ;
#89 = VERTEX_POINT ( 'NONE', #78 ) ;
#90 = AXIS2_PLACEMENT_3D ( 'NONE', #102, #5, #8 ) ;
#91 = CARTESIAN_POINT ( 'NONE',  ( -8.000000000000000000, 0.000000000000000000, 250.0000000000000000 ) ) ;
#92 = DIRECTION ( 'NONE',  ( -0.000000000000000000, -0.000000000000000000, -1.000000000000000000 ) ) ;
#93 = VERTEX_POINT ( 'NONE', #80 ) ;
#94 = CARTESIAN_POINT ( 'NONE',  ( 0.000000000000000000, 0.000000000000000000, 0.000000000000000000 ) ) ;
#95 = DIRECTION ( 'NONE',  ( 1.000000000000000000, 0.000000000000000000, 0.000000000000000000 ) ) ;
#96 = APPROVAL_PERSON_ORGANIZATION ( #116, #70, #126 ) ;
#97 = COORDINATED_UNIVERSAL_TIME_OFFSET ( 1, 0, .AHEAD. ) ;
#98 = EDGE_CURVE ( 'NONE', #93, #72, #143, .T. ) ;
#99 = DIRECTION ( 'NONE',  ( 1.000000000000000000, 0.000000000000000000, 0.000000000000000000 ) ) ;
#100 = CARTESIAN_POINT ( 'NONE',  ( 0.000000000000000000, 0.000000000000000000, 7.000000000000000000 ) ) ;
#101 = CIRCLE ( 'NONE', #136, 11.00000000000000000 ) ;
#102 = CARTESIAN_POINT ( 'NONE',  ( 0.000000000000000000, 0.000000000000000000, 7.000000000000000000 ) ) ;
#103 = CC_DESIGN_PERSON_AND_ORGANIZATION_ASSIGNMENT ( #240, #42, ( #73 ) ) ;
#104 =( GEOMETRIC_REPRESENTATION_CONTEXT ( 3 ) GLOBAL_UNCERTAINTY_ASSIGNED_CONTEXT ( ( #69 ) ) GLOBAL_UNIT_ASSIGNED_CONTEXT ( ( #255, #231, #242 ) ) REPRESENTATION_CONTEXT ( 'NONE', 'WORKASPACE' ) );
#105 = APPROVAL_PERSON_ORGANIZATION ( #60, #10, #58 ) ;
#106 = CYLINDRICAL_SURFACE ( 'NONE', #29, 8.000000000000000000 ) ;
#107 = EDGE_CURVE ( 'NONE', #111, #18, #161, .T. ) ;
#108 = AXIS2_PLACEMENT_3D ( 'NONE', #159, #237, #99 ) ;
#109 = PLANE ( 'NONE',  #186 ) ;
#110 = LINE ( 'NONE', #91, #168 ) ;
#111 = VERTEX_POINT ( 'NONE', #163 ) ;
#112 = ORIENTED_EDGE ( 'NONE', *, *, #187, .T. ) ;
#113 = ORIENTED_EDGE ( 'NONE', *, *, #191, .F. ) ;
#114 = DIRECTION ( 'NONE',  ( -1.000000000000000000, 0.000000000000000000, 0.000000000000000000 ) ) ;
#115 = ADVANCED_FACE ( 'NONE', ( #176, #243 ), #6, .T. ) ;
#116 = PERSON_AND_ORGANIZATION ( #61, #15 ) ;
#117 = AXIS2_PLACEMENT_3D ( 'NONE', #94, #35, #174 ) ;
#118 = PRODUCT_DEFINITION_FORMATION_WITH_SPECIFIED_SOURCE ( 'LIBOVOLNÝ', '', #73, .NOT_KNOWN. ) ;
#119 = LOCAL_TIME ( 10, 20, 59.00000000000000000, #160 ) ;
#120 = DATE_AND_TIME ( #145, #119 ) ;
#121 = ADVANCED_FACE ( 'NONE', ( #59 ), #141, .T. ) ;
#122 = APPLICATION_CONTEXT ( 'configuration controlled 3d designs of mechanical parts and assemblies' ) ;
#123 = DIRECTION ( 'NONE',  ( -0.000000000000000000, -0.000000000000000000, -1.000000000000000000 ) ) ;
#124 = PERSON_AND_ORGANIZATION ( #61, #15 ) ;
#125 = DIRECTION ( 'NONE',  ( 0.000000000000000000, 0.000000000000000000, 1.000000000000000000 ) ) ;
#126 = APPROVAL_ROLE ( '' ) ;
#127 = APPROVAL_STATUS ( 'not_yet_approved' ) ;
#128 = EDGE_CURVE ( 'NONE', #72, #93, #223, .T. ) ;
#129 = EDGE_LOOP ( 'NONE', ( #195, #211, #33, #53 ) ) ;
#130 = DIRECTION ( 'NONE',  ( 1.000000000000000000, 0.000000000000000000, -0.000000000000000000 ) ) ;
#131 = EDGE_LOOP ( 'NONE', ( #251, #37 ) ) ;
#132 = CARTESIAN_POINT ( 'NONE',  ( -8.000000000000000000, 0.000000000000000000, 250.0000000000000000 ) ) ;
#133 = CYLINDRICAL_SURFACE ( 'NONE', #83, 11.00000000000000000 ) ;
#134 = DIRECTION ( 'NONE',  ( 1.000000000000000000, 0.000000000000000000, 0.000000000000000000 ) ) ;
#135 = ORIENTED_EDGE ( 'NONE', *, *, #74, .F. ) ;
#136 = AXIS2_PLACEMENT_3D ( 'NONE', #192, #34, #232 ) ;
#137 = DIRECTION ( 'NONE',  ( -0.000000000000000000, -0.000000000000000000, -1.000000000000000000 ) ) ;
#138 = AXIS2_PLACEMENT_3D ( 'NONE', #87, #52, #250 ) ;
#139 = ORIENTED_EDGE ( 'NONE', *, *, #7, .T. ) ;
#140 = CALENDAR_DATE ( 2023, 13, 2 ) ;
#141 = CYLINDRICAL_SURFACE ( 'NONE', #85, 11.00000000000000000 ) ;
#142 = CARTESIAN_POINT ( 'NONE',  ( 0.000000000000000000, 0.000000000000000000, 0.000000000000000000 ) ) ;
#143 = CIRCLE ( 'NONE', #90, 8.000000000000000000 ) ;
#144 = APPROVAL_DATE_TIME ( #45, #70 ) ;
#145 = CALENDAR_DATE ( 2023, 13, 2 ) ;
#146 = APPROVAL_PERSON_ORGANIZATION ( #220, #173, #13 ) ;
#147 = AXIS2_PLACEMENT_3D ( 'NONE', #201, #23, #95 ) ;
#148 = LOCAL_TIME ( 10, 20, 59.00000000000000000, #97 ) ;
#149 = CARTESIAN_POINT ( 'NONE',  ( 11.00000000000000000, 1.347111479062088405E-15, 7.000000000000000000 ) ) ;
#150 = DATE_AND_TIME ( #44, #233 ) ;
#151 = EDGE_CURVE ( 'NONE', #89, #212, #11, .T. ) ;
#152 = ORIENTED_EDGE ( 'NONE', *, *, #98, .F. ) ;
#153 = AXIS2_PLACEMENT_3D ( 'NONE', #158, #123, #207 ) ;
#154 = CARTESIAN_POINT ( 'NONE',  ( 0.000000000000000000, 0.000000000000000000, 250.0000000000000000 ) ) ;
#155 = DIRECTION ( 'NONE',  ( -0.000000000000000000, -0.000000000000000000, -1.000000000000000000 ) ) ;
#156 = ORIENTED_EDGE ( 'NONE', *, *, #2, .F. ) ;
#157 = CARTESIAN_POINT ( 'NONE',  ( 8.000000000000000000, 9.797174393178825657E-16, 250.0000000000000000 ) ) ;
#158 = CARTESIAN_POINT ( 'NONE',  ( 0.000000000000000000, 0.000000000000000000, 250.0000000000000000 ) ) ;
#159 = CARTESIAN_POINT ( 'NONE',  ( 0.000000000000000000, 0.000000000000000000, 0.000000000000000000 ) ) ;
#160 = COORDINATED_UNIVERSAL_TIME_OFFSET ( 1, 0, .AHEAD. ) ;
#161 = CIRCLE ( 'NONE', #194, 11.00000000000000000 ) ;
#162 = LOCAL_TIME ( 10, 20, 59.00000000000000000, #77 ) ;
#163 = CARTESIAN_POINT ( 'NONE',  ( -11.00000000000000000, 0.000000000000000000, 7.000000000000000000 ) ) ;
#164 = CC_DESIGN_PERSON_AND_ORGANIZATION_ASSIGNMENT ( #124, #26, ( #118 ) ) ;
#165 = CIRCLE ( 'NONE', #108, 11.00000000000000000 ) ;
#166 = ORIENTED_EDGE ( 'NONE', *, *, #167, .T. ) ;
#167 = EDGE_CURVE ( 'NONE', #190, #68, #165, .T. ) ;
#168 = VECTOR ( 'NONE', #155, 1000.000000000000000 ) ;
#169 = ORIENTED_EDGE ( 'NONE', *, *, #197, .F. ) ;
#170 = ORIENTED_EDGE ( 'NONE', *, *, #98, .T. ) ;
#171 = ORIENTED_EDGE ( 'NONE', *, *, #128, .T. ) ;
#172 = DIRECTION ( 'NONE',  ( -1.000000000000000000, 0.000000000000000000, 0.000000000000000000 ) ) ;
#173 = APPROVAL ( #127, 'NEURÈENÝ' ) ;
#174 = DIRECTION ( 'NONE',  ( 1.000000000000000000, 0.000000000000000000, -0.000000000000000000 ) ) ;
#175 = AXIS2_PLACEMENT_3D ( 'NONE', #76, #3, #203 ) ;
#176 = FACE_BOUND ( 'NONE', #88, .T. ) ;
#177 = SHAPE_DEFINITION_REPRESENTATION ( #48, #31 ) ;
#178 = PERSON_AND_ORGANIZATION_ROLE ( 'creator' ) ;
#179 = LINE ( 'NONE', #149, #19 ) ;
#180 = DIRECTION ( 'NONE',  ( 1.000000000000000000, 0.000000000000000000, 0.000000000000000000 ) ) ;
#181 = DIRECTION ( 'NONE',  ( 1.000000000000000000, 0.000000000000000000, 0.000000000000000000 ) ) ;
#182 = AXIS2_PLACEMENT_3D ( 'NONE', #64, #125, #235 ) ;
#183 = CARTESIAN_POINT ( 'NONE',  ( -11.00000000000000000, 0.000000000000000000, 0.000000000000000000 ) ) ;
#184 = CALENDAR_DATE ( 2023, 13, 2 ) ;
#185 = CC_DESIGN_PERSON_AND_ORGANIZATION_ASSIGNMENT ( #218, #221, ( #222 ) ) ;
#186 = AXIS2_PLACEMENT_3D ( 'NONE', #196, #16, #130 ) ;
#187 = EDGE_CURVE ( 'NONE', #18, #190, #179, .T. ) ;
#188 = EDGE_LOOP ( 'NONE', ( #36, #113, #139, #170 ) ) ;
#189 = CARTESIAN_POINT ( 'NONE',  ( 11.00000000000000000, 1.347111479062088405E-15, 0.000000000000000000 ) ) ;
#190 = VERTEX_POINT ( 'NONE', #189 ) ;
#191 = EDGE_CURVE ( 'NONE', #212, #89, #57, .T. ) ;
#192 = CARTESIAN_POINT ( 'NONE',  ( 0.000000000000000000, 0.000000000000000000, 0.000000000000000000 ) ) ;
#193 = FACE_OUTER_BOUND ( 'NONE', #188, .T. ) ;
#194 = AXIS2_PLACEMENT_3D ( 'NONE', #100, #81, #181 ) ;
#195 = ORIENTED_EDGE ( 'NONE', *, *, #187, .F. ) ;
#196 = CARTESIAN_POINT ( 'NONE',  ( 0.000000000000000000, 0.000000000000000000, 250.0000000000000000 ) ) ;
#197 = EDGE_CURVE ( 'NONE', #18, #111, #215, .T. ) ;
#198 = CARTESIAN_POINT ( 'NONE',  ( 11.00000000000000000, 1.347111479062088405E-15, 7.000000000000000000 ) ) ;
#199 = ORIENTED_EDGE ( 'NONE', *, *, #128, .F. ) ;
#200 = PERSON_AND_ORGANIZATION_ROLE ( 'creator' ) ;
#201 = CARTESIAN_POINT ( 'NONE',  ( 0.000000000000000000, 0.000000000000000000, 7.000000000000000000 ) ) ;
#202 = PERSON_AND_ORGANIZATION ( #61, #15 ) ;
#203 = DIRECTION ( 'NONE',  ( 1.000000000000000000, 0.000000000000000000, 0.000000000000000000 ) ) ;
#204 = MECHANICAL_CONTEXT ( 'NONE', #86, 'mechanical' ) ;
#205 = CARTESIAN_POINT ( 'NONE',  ( -11.00000000000000000, 0.000000000000000000, 7.000000000000000000 ) ) ;
#206 = APPLICATION_PROTOCOL_DEFINITION ( 'international standard', 'config_control_design', 1994, #86 ) ;
#207 = DIRECTION ( 'NONE',  ( -1.000000000000000000, 0.000000000000000000, 0.000000000000000000 ) ) ;
#208 = DATE_TIME_ROLE ( 'classification_date' ) ;
#209 = ADVANCED_FACE ( 'NONE', ( #249 ), #109, .T. ) ;
#210 = APPROVAL_DATE_TIME ( #150, #173 ) ;
#211 = ORIENTED_EDGE ( 'NONE', *, *, #107, .F. ) ;
#212 = VERTEX_POINT ( 'NONE', #132 ) ;
#213 = EDGE_LOOP ( 'NONE', ( #50, #229 ) ) ;
#214 = EDGE_LOOP ( 'NONE', ( #71, #252, #171, #254 ) ) ;
#215 = CIRCLE ( 'NONE', #138, 11.00000000000000000 ) ;
#216 = FACE_OUTER_BOUND ( 'NONE', #214, .T. ) ;
#217 = CARTESIAN_POINT ( 'NONE',  ( 0.000000000000000000, 0.000000000000000000, 7.000000000000000000 ) ) ;
#218 = PERSON_AND_ORGANIZATION ( #61, #15 ) ;
#219 = CC_DESIGN_DATE_AND_TIME_ASSIGNMENT ( #120, #79, ( #82 ) ) ;
#220 = PERSON_AND_ORGANIZATION ( #61, #15 ) ;
#221 = PERSON_AND_ORGANIZATION_ROLE ( 'classification_officer' ) ;
#222 = SECURITY_CLASSIFICATION ( '', '', #241 ) ;
#223 = CIRCLE ( 'NONE', #147, 8.000000000000000000 ) ;
#224 = PRODUCT_RELATED_PRODUCT_CATEGORY ( 'detail', '', ( #73 ) ) ;
#225 = FACE_OUTER_BOUND ( 'NONE', #228, .T. ) ;
#226 = DESIGN_CONTEXT ( 'detailed design', #122, 'design' ) ;
#227 = VECTOR ( 'NONE', #56, 1000.000000000000000 ) ;
#228 = EDGE_LOOP ( 'NONE', ( #156, #22 ) ) ;
#229 = ORIENTED_EDGE ( 'NONE', *, *, #197, .T. ) ;
#230 = PLANE ( 'NONE',  #117 ) ;
#231 =( NAMED_UNIT ( * ) PLANE_ANGLE_UNIT ( ) SI_UNIT ( $, .RADIAN. ) );
#232 = DIRECTION ( 'NONE',  ( 1.000000000000000000, 0.000000000000000000, 0.000000000000000000 ) ) ;
#233 = LOCAL_TIME ( 10, 20, 59.00000000000000000, #246 ) ;
#234 = APPLICATION_PROTOCOL_DEFINITION ( 'international standard', 'config_control_design', 1994, #122 ) ;
#235 = DIRECTION ( 'NONE',  ( 1.000000000000000000, 0.000000000000000000, -0.000000000000000000 ) ) ;
#236 = APPROVAL_DATE_TIME ( #4, #10 ) ;
#237 = DIRECTION ( 'NONE',  ( 0.000000000000000000, 0.000000000000000000, 1.000000000000000000 ) ) ;
#238 = LINE ( 'NONE', #205, #239 ) ;
#239 = VECTOR ( 'NONE', #27, 1000.000000000000000 ) ;
#240 = PERSON_AND_ORGANIZATION ( #61, #15 ) ;
#241 = SECURITY_CLASSIFICATION_LEVEL ( 'unclassified' ) ;
#242 =( NAMED_UNIT ( * ) SI_UNIT ( $, .STERADIAN. ) SOLID_ANGLE_UNIT ( ) );
#243 = FACE_OUTER_BOUND ( 'NONE', #213, .T. ) ;
#244 = CLOSED_SHELL ( 'NONE', ( #67, #121, #47, #115, #32, #248, #209 ) ) ;
#245 = CC_DESIGN_APPROVAL ( #70, ( #222 ) ) ;
#246 = COORDINATED_UNIVERSAL_TIME_OFFSET ( 1, 0, .AHEAD. ) ;
#247 = MANIFOLD_SOLID_BREP ( 'Pøidat vysunutím3', #244 ) ;
#248 = ADVANCED_FACE ( 'NONE', ( #193 ), #106, .T. ) ;
#249 = FACE_OUTER_BOUND ( 'NONE', #131, .T. ) ;
#250 = DIRECTION ( 'NONE',  ( 1.000000000000000000, 0.000000000000000000, 0.000000000000000000 ) ) ;
#251 = ORIENTED_EDGE ( 'NONE', *, *, #191, .T. ) ;
#252 = ORIENTED_EDGE ( 'NONE', *, *, #51, .T. ) ;
#253 = LOCAL_TIME ( 10, 20, 59.00000000000000000, #38 ) ;
#254 = ORIENTED_EDGE ( 'NONE', *, *, #7, .F. ) ;
#255 =( LENGTH_UNIT ( ) NAMED_UNIT ( * ) SI_UNIT ( .MILLI., .METRE. ) );
ENDSEC;
END-ISO-10303-21;
