ISO-10303-21;
HEADER;
FILE_DESCRIPTION (( 'STEP AP203' ),
    '1' );
FILE_NAME ('ba2c.STEP',
    '2023-02-13T15:05:15',
    ( '' ),
    ( '' ),
    'SwSTEP 2.0',
    'SolidWorks 2019',
    '' );
FILE_SCHEMA (( 'CONFIG_CONTROL_DESIGN' ));
ENDSEC;

DATA;
#1 = DIRECTION ( 'NONE',  ( -1.000000000000000000, 0.000000000000000000, 0.000000000000000000 ) ) ;
#2 = CARTESIAN_POINT ( 'NONE',  ( 0.000000000000000000, 0.000000000000000000, 500.0000000000000000 ) ) ;
#3 = LINE ( 'NONE', #42, #76 ) ;
#4 = EDGE_CURVE ( 'NONE', #94, #254, #163, .T. ) ;
#5 = LINE ( 'NONE', #82, #16 ) ;
#6 = PERSON_AND_ORGANIZATION ( #212, #250 ) ;
#7 =( NAMED_UNIT ( * ) PLANE_ANGLE_UNIT ( ) SI_UNIT ( $, .RADIAN. ) );
#8 = AXIS2_PLACEMENT_3D ( 'NONE', #117, #155, #115 ) ;
#9 =( LENGTH_UNIT ( ) NAMED_UNIT ( * ) SI_UNIT ( .MILLI., .METRE. ) );
#10 = FACE_OUTER_BOUND ( 'NONE', #34, .T. ) ;
#11 = EDGE_LOOP ( 'NONE', ( #136, #228, #226, #96 ) ) ;
#12 = LOCAL_TIME ( 16, 5, 15.00000000000000000, #105 ) ;
#13 = FACE_BOUND ( 'NONE', #253, .T. ) ;
#14 = ORIENTED_EDGE ( 'NONE', *, *, #129, .T. ) ;
#15 = ADVANCED_FACE ( 'NONE', ( #13, #148 ), #97, .T. ) ;
#16 = VECTOR ( 'NONE', #239, 1000.000000000000000 ) ;
#17 = DIRECTION ( 'NONE',  ( -0.000000000000000000, -0.000000000000000000, -1.000000000000000000 ) ) ;
#18 = CARTESIAN_POINT ( 'NONE',  ( 0.000000000000000000, 0.000000000000000000, 500.0000000000000000 ) ) ;
#19 = CARTESIAN_POINT ( 'NONE',  ( -2.100000000000000089, 0.000000000000000000, 500.0000000000000000 ) ) ;
#20 = DESIGN_CONTEXT ( 'detailed design', #169, 'design' ) ;
#21 = DIRECTION ( 'NONE',  ( 1.000000000000000000, 0.000000000000000000, 0.000000000000000000 ) ) ;
#22 = DIRECTION ( 'NONE',  ( -1.000000000000000000, 0.000000000000000000, 0.000000000000000000 ) ) ;
#23 = APPROVAL_STATUS ( 'not_yet_approved' ) ;
#24 = PERSON_AND_ORGANIZATION ( #212, #250 ) ;
#25 = APPROVAL_STATUS ( 'not_yet_approved' ) ;
#26 = CC_DESIGN_PERSON_AND_ORGANIZATION_ASSIGNMENT ( #182, #44, ( #85 ) ) ;
#27 = VECTOR ( 'NONE', #61, 1000.000000000000000 ) ;
#28 = LOCAL_TIME ( 16, 5, 15.00000000000000000, #222 ) ;
#29 = VERTEX_POINT ( 'NONE', #213 ) ;
#30 = SHAPE_DEFINITION_REPRESENTATION ( #242, #160 ) ;
#31 = VERTEX_POINT ( 'NONE', #168 ) ;
#32 = AXIS2_PLACEMENT_3D ( 'NONE', #2, #142, #22 ) ;
#33 = CC_DESIGN_APPROVAL ( #183, ( #85 ) ) ;
#34 = EDGE_LOOP ( 'NONE', ( #147, #91, #14, #251 ) ) ;
#35 = ORIENTED_EDGE ( 'NONE', *, *, #135, .F. ) ;
#36 = LINE ( 'NONE', #193, #240 ) ;
#37 = AXIS2_PLACEMENT_3D ( 'NONE', #151, #62, #118 ) ;
#38 = CYLINDRICAL_SURFACE ( 'NONE', #171, 2.100000000000000089 ) ;
#39 = CYLINDRICAL_SURFACE ( 'NONE', #32, 2.100000000000000089 ) ;
#40 = DIRECTION ( 'NONE',  ( 0.000000000000000000, 0.000000000000000000, 1.000000000000000000 ) ) ;
#41 = CIRCLE ( 'NONE', #236, 4.000000000000000000 ) ;
#42 = CARTESIAN_POINT ( 'NONE',  ( 4.000000000000000000, 4.898587196589412829E-16, 3.000000000000000000 ) ) ;
#43 = PERSON_AND_ORGANIZATION ( #212, #250 ) ;
#44 = PERSON_AND_ORGANIZATION_ROLE ( 'design_supplier' ) ;
#45 = DIRECTION ( 'NONE',  ( 0.000000000000000000, 0.000000000000000000, 1.000000000000000000 ) ) ;
#46 = ADVANCED_FACE ( 'NONE', ( #10 ), #132, .T. ) ;
#47 = ADVANCED_FACE ( 'NONE', ( #79 ), #38, .T. ) ;
#48 = ORIENTED_EDGE ( 'NONE', *, *, #90, .T. ) ;
#49 = EDGE_LOOP ( 'NONE', ( #231, #131, #92, #134 ) ) ;
#50 = DIRECTION ( 'NONE',  ( 1.000000000000000000, 0.000000000000000000, -0.000000000000000000 ) ) ;
#51 = AXIS2_PLACEMENT_3D ( 'NONE', #232, #229, #50 ) ;
#52 = LOCAL_TIME ( 16, 5, 15.00000000000000000, #144 ) ;
#53 = ADVANCED_FACE ( 'NONE', ( #179 ), #39, .T. ) ;
#54 = VERTEX_POINT ( 'NONE', #19 ) ;
#55 = VERTEX_POINT ( 'NONE', #81 ) ;
#56 = CARTESIAN_POINT ( 'NONE',  ( 0.000000000000000000, 0.000000000000000000, 3.000000000000000000 ) ) ;
#57 = ADVANCED_FACE ( 'NONE', ( #80 ), #59, .F. ) ;
#58 = APPROVAL_PERSON_ORGANIZATION ( #6, #60, #203 ) ;
#59 = PLANE ( 'NONE',  #83 ) ;
#60 = APPROVAL ( #161, 'NEURÈENÝ' ) ;
#61 = DIRECTION ( 'NONE',  ( -0.000000000000000000, -0.000000000000000000, -1.000000000000000000 ) ) ;
#62 = DIRECTION ( 'NONE',  ( 0.000000000000000000, 0.000000000000000000, 1.000000000000000000 ) ) ;
#63 = CIRCLE ( 'NONE', #98, 4.000000000000000000 ) ;
#64 = DIRECTION ( 'NONE',  ( 1.000000000000000000, 0.000000000000000000, 0.000000000000000000 ) ) ;
#65 = LOCAL_TIME ( 16, 5, 15.00000000000000000, #145 ) ;
#66 = DIRECTION ( 'NONE',  ( 1.000000000000000000, 0.000000000000000000, 0.000000000000000000 ) ) ;
#67 = APPROVAL_ROLE ( '' ) ;
#68 = PERSON_AND_ORGANIZATION_ROLE ( 'classification_officer' ) ;
#69 = CC_DESIGN_PERSON_AND_ORGANIZATION_ASSIGNMENT ( #24, #68, ( #141 ) ) ;
#70 = PERSON_AND_ORGANIZATION ( #212, #250 ) ;
#71 = PERSON_AND_ORGANIZATION ( #212, #250 ) ;
#72 = MANIFOLD_SOLID_BREP ( 'Pøidat vysunutím3', #146 ) ;
#73 = DIRECTION ( 'NONE',  ( -0.000000000000000000, -0.000000000000000000, -1.000000000000000000 ) ) ;
#74 = CIRCLE ( 'NONE', #149, 2.100000000000000089 ) ;
#75 = ORIENTED_EDGE ( 'NONE', *, *, #135, .T. ) ;
#76 = VECTOR ( 'NONE', #125, 1000.000000000000000 ) ;
#77 = VERTEX_POINT ( 'NONE', #102 ) ;
#78 = FACE_OUTER_BOUND ( 'NONE', #11, .T. ) ;
#79 = FACE_OUTER_BOUND ( 'NONE', #49, .T. ) ;
#80 = FACE_OUTER_BOUND ( 'NONE', #187, .T. ) ;
#81 = CARTESIAN_POINT ( 'NONE',  ( -4.000000000000000000, 0.000000000000000000, 3.000000000000000000 ) ) ;
#82 = CARTESIAN_POINT ( 'NONE',  ( -4.000000000000000000, 0.000000000000000000, 3.000000000000000000 ) ) ;
#83 = AXIS2_PLACEMENT_3D ( 'NONE', #99, #139, #101 ) ;
#84 = MECHANICAL_CONTEXT ( 'NONE', #121, 'mechanical' ) ;
#85 = PRODUCT_DEFINITION_FORMATION_WITH_SPECIFIED_SOURCE ( 'LIBOVOLNÝ', '', #188, .NOT_KNOWN. ) ;
#86 = ADVANCED_FACE ( 'NONE', ( #78 ), #177, .T. ) ;
#87 = CARTESIAN_POINT ( 'NONE',  ( -2.100000000000000089, 0.000000000000000000, 3.000000000000000000 ) ) ;
#88 =( NAMED_UNIT ( * ) SI_UNIT ( $, .STERADIAN. ) SOLID_ANGLE_UNIT ( ) );
#89 = CALENDAR_DATE ( 2023, 13, 2 ) ;
#90 = EDGE_CURVE ( 'NONE', #31, #54, #221, .T. ) ;
#91 = ORIENTED_EDGE ( 'NONE', *, *, #206, .T. ) ;
#92 = ORIENTED_EDGE ( 'NONE', *, *, #4, .T. ) ;
#93 = AXIS2_PLACEMENT_3D ( 'NONE', #138, #217, #216 ) ;
#94 = VERTEX_POINT ( 'NONE', #238 ) ;
#95 = EDGE_CURVE ( 'NONE', #55, #77, #133, .T. ) ;
#96 = ORIENTED_EDGE ( 'NONE', *, *, #196, .T. ) ;
#97 = PLANE ( 'NONE',  #51 ) ;
#98 = AXIS2_PLACEMENT_3D ( 'NONE', #201, #103, #181 ) ;
#99 = CARTESIAN_POINT ( 'NONE',  ( 0.000000000000000000, 0.000000000000000000, 0.000000000000000000 ) ) ;
#100 = CARTESIAN_POINT ( 'NONE',  ( -4.000000000000000000, 0.000000000000000000, 0.000000000000000000 ) ) ;
#101 = DIRECTION ( 'NONE',  ( 1.000000000000000000, 0.000000000000000000, -0.000000000000000000 ) ) ;
#102 = CARTESIAN_POINT ( 'NONE',  ( 4.000000000000000000, 4.898587196589412829E-16, 3.000000000000000000 ) ) ;
#103 = DIRECTION ( 'NONE',  ( 0.000000000000000000, 0.000000000000000000, 1.000000000000000000 ) ) ;
#104 = CC_DESIGN_PERSON_AND_ORGANIZATION_ASSIGNMENT ( #70, #185, ( #225 ) ) ;
#105 = COORDINATED_UNIVERSAL_TIME_OFFSET ( 1, 0, .AHEAD. ) ;
#106 = PERSON_AND_ORGANIZATION_ROLE ( 'creator' ) ;
#107 = CALENDAR_DATE ( 2023, 13, 2 ) ;
#108 = EDGE_LOOP ( 'NONE', ( #174, #48 ) ) ;
#109 = EDGE_CURVE ( 'NONE', #54, #254, #197, .T. ) ;
#110 = ORIENTED_EDGE ( 'NONE', *, *, #233, .F. ) ;
#111 = APPROVAL_ROLE ( '' ) ;
#112 = ORIENTED_EDGE ( 'NONE', *, *, #196, .F. ) ;
#113 = CC_DESIGN_PERSON_AND_ORGANIZATION_ASSIGNMENT ( #143, #106, ( #85 ) ) ;
#114 = CALENDAR_DATE ( 2023, 13, 2 ) ;
#115 = DIRECTION ( 'NONE',  ( -1.000000000000000000, 0.000000000000000000, 0.000000000000000000 ) ) ;
#116 =( GEOMETRIC_REPRESENTATION_CONTEXT ( 3 ) GLOBAL_UNCERTAINTY_ASSIGNED_CONTEXT ( ( #119 ) ) GLOBAL_UNIT_ASSIGNED_CONTEXT ( ( #9, #7, #88 ) ) REPRESENTATION_CONTEXT ( 'NONE', 'WORKASPACE' ) );
#117 = CARTESIAN_POINT ( 'NONE',  ( 0.000000000000000000, 0.000000000000000000, 3.000000000000000000 ) ) ;
#118 = DIRECTION ( 'NONE',  ( 1.000000000000000000, 0.000000000000000000, 0.000000000000000000 ) ) ;
#119 = UNCERTAINTY_MEASURE_WITH_UNIT (LENGTH_MEASURE( 1.000000000000000082E-05 ), #9, 'distance_accuracy_value', 'NONE');
#120 = ADVANCED_FACE ( 'NONE', ( #195 ), #237, .T. ) ;
#121 = APPLICATION_CONTEXT ( 'configuration controlled 3d designs of mechanical parts and assemblies' ) ;
#122 = DIRECTION ( 'NONE',  ( 1.000000000000000000, 0.000000000000000000, -0.000000000000000000 ) ) ;
#123 = AXIS2_PLACEMENT_3D ( 'NONE', #211, #150, #173 ) ;
#124 = PRODUCT_RELATED_PRODUCT_CATEGORY ( 'detail', '', ( #188 ) ) ;
#125 = DIRECTION ( 'NONE',  ( -0.000000000000000000, -0.000000000000000000, -1.000000000000000000 ) ) ;
#126 = PERSON_AND_ORGANIZATION_ROLE ( 'design_owner' ) ;
#127 = APPLICATION_PROTOCOL_DEFINITION ( 'international standard', 'config_control_design', 1994, #169 ) ;
#128 = SECURITY_CLASSIFICATION_LEVEL ( 'unclassified' ) ;
#129 = EDGE_CURVE ( 'NONE', #29, #130, #175, .T. ) ;
#130 = VERTEX_POINT ( 'NONE', #100 ) ;
#131 = ORIENTED_EDGE ( 'NONE', *, *, #233, .T. ) ;
#132 = CYLINDRICAL_SURFACE ( 'NONE', #245, 4.000000000000000000 ) ;
#133 = CIRCLE ( 'NONE', #37, 4.000000000000000000 ) ;
#134 = ORIENTED_EDGE ( 'NONE', *, *, #109, .F. ) ;
#135 = EDGE_CURVE ( 'NONE', #254, #94, #74, .T. ) ;
#136 = ORIENTED_EDGE ( 'NONE', *, *, #206, .F. ) ;
#137 = DIRECTION ( 'NONE',  ( 0.000000000000000000, 0.000000000000000000, 1.000000000000000000 ) ) ;
#138 = CARTESIAN_POINT ( 'NONE',  ( 0.000000000000000000, 0.000000000000000000, 500.0000000000000000 ) ) ;
#139 = DIRECTION ( 'NONE',  ( 0.000000000000000000, 0.000000000000000000, 1.000000000000000000 ) ) ;
#140 = DIRECTION ( 'NONE',  ( 0.000000000000000000, 0.000000000000000000, 1.000000000000000000 ) ) ;
#141 = SECURITY_CLASSIFICATION ( '', '', #128 ) ;
#142 = DIRECTION ( 'NONE',  ( -0.000000000000000000, -0.000000000000000000, -1.000000000000000000 ) ) ;
#143 = PERSON_AND_ORGANIZATION ( #212, #250 ) ;
#144 = COORDINATED_UNIVERSAL_TIME_OFFSET ( 1, 0, .AHEAD. ) ;
#145 = COORDINATED_UNIVERSAL_TIME_OFFSET ( 1, 0, .AHEAD. ) ;
#146 = CLOSED_SHELL ( 'NONE', ( #47, #46, #86, #15, #57, #53, #120 ) ) ;
#147 = ORIENTED_EDGE ( 'NONE', *, *, #218, .F. ) ;
#148 = FACE_OUTER_BOUND ( 'NONE', #190, .T. ) ;
#149 = AXIS2_PLACEMENT_3D ( 'NONE', #56, #140, #21 ) ;
#150 = DIRECTION ( 'NONE',  ( 0.000000000000000000, 0.000000000000000000, 1.000000000000000000 ) ) ;
#151 = CARTESIAN_POINT ( 'NONE',  ( 0.000000000000000000, 0.000000000000000000, 3.000000000000000000 ) ) ;
#152 = CARTESIAN_POINT ( 'NONE',  ( 0.000000000000000000, 0.000000000000000000, 500.0000000000000000 ) ) ;
#153 = CC_DESIGN_APPROVAL ( #60, ( #225 ) ) ;
#154 = LOCAL_TIME ( 16, 5, 15.00000000000000000, #170 ) ;
#155 = DIRECTION ( 'NONE',  ( -0.000000000000000000, -0.000000000000000000, -1.000000000000000000 ) ) ;
#156 = CARTESIAN_POINT ( 'NONE',  ( 0.000000000000000000, 0.000000000000000000, 0.000000000000000000 ) ) ;
#157 = DIRECTION ( 'NONE',  ( -1.000000000000000000, 0.000000000000000000, 0.000000000000000000 ) ) ;
#158 = CC_DESIGN_APPROVAL ( #248, ( #141 ) ) ;
#159 = DATE_AND_TIME ( #164, #12 ) ;
#160 = ADVANCED_BREP_SHAPE_REPRESENTATION ( 'ba2c', ( #72, #184 ), #116 ) ;
#161 = APPROVAL_STATUS ( 'not_yet_approved' ) ;
#162 = EDGE_CURVE ( 'NONE', #54, #31, #209, .T. ) ;
#163 = CIRCLE ( 'NONE', #123, 2.100000000000000089 ) ;
#164 = CALENDAR_DATE ( 2023, 13, 2 ) ;
#165 = CC_DESIGN_DATE_AND_TIME_ASSIGNMENT ( #223, #186, ( #141 ) ) ;
#166 = DATE_TIME_ROLE ( 'creation_date' ) ;
#167 = APPROVAL_DATE_TIME ( #227, #248 ) ;
#168 = CARTESIAN_POINT ( 'NONE',  ( 2.100000000000000089, 2.571758278209441464E-16, 500.0000000000000000 ) ) ;
#169 = APPLICATION_CONTEXT ( 'configuration controlled 3d designs of mechanical parts and assemblies' ) ;
#170 = COORDINATED_UNIVERSAL_TIME_OFFSET ( 1, 0, .AHEAD. ) ;
#171 = AXIS2_PLACEMENT_3D ( 'NONE', #152, #235, #157 ) ;
#172 = ORIENTED_EDGE ( 'NONE', *, *, #162, .F. ) ;
#173 = DIRECTION ( 'NONE',  ( 1.000000000000000000, 0.000000000000000000, 0.000000000000000000 ) ) ;
#174 = ORIENTED_EDGE ( 'NONE', *, *, #162, .T. ) ;
#175 = CIRCLE ( 'NONE', #204, 4.000000000000000000 ) ;
#176 = CC_DESIGN_DATE_AND_TIME_ASSIGNMENT ( #202, #166, ( #225 ) ) ;
#177 = CYLINDRICAL_SURFACE ( 'NONE', #8, 4.000000000000000000 ) ;
#178 = DIRECTION ( 'NONE',  ( 0.000000000000000000, 0.000000000000000000, 1.000000000000000000 ) ) ;
#179 = FACE_OUTER_BOUND ( 'NONE', #192, .T. ) ;
#180 = CARTESIAN_POINT ( 'NONE',  ( 0.000000000000000000, 0.000000000000000000, 0.000000000000000000 ) ) ;
#181 = DIRECTION ( 'NONE',  ( 1.000000000000000000, 0.000000000000000000, 0.000000000000000000 ) ) ;
#182 = PERSON_AND_ORGANIZATION ( #212, #250 ) ;
#183 = APPROVAL ( #25, 'NEURÈENÝ' ) ;
#184 = AXIS2_PLACEMENT_3D ( 'NONE', #241, #45, #66 ) ;
#185 = PERSON_AND_ORGANIZATION_ROLE ( 'creator' ) ;
#186 = DATE_TIME_ROLE ( 'classification_date' ) ;
#187 = EDGE_LOOP ( 'NONE', ( #112, #208 ) ) ;
#188 = PRODUCT ( 'ba2c', 'ba2c', '', ( #84 ) ) ;
#189 = ORIENTED_EDGE ( 'NONE', *, *, #4, .F. ) ;
#190 = EDGE_LOOP ( 'NONE', ( #207, #252 ) ) ;
#191 = ORIENTED_EDGE ( 'NONE', *, *, #109, .T. ) ;
#192 = EDGE_LOOP ( 'NONE', ( #110, #172, #191, #75 ) ) ;
#193 = CARTESIAN_POINT ( 'NONE',  ( 2.100000000000000089, 2.571758278209441464E-16, 500.0000000000000000 ) ) ;
#194 = CC_DESIGN_SECURITY_CLASSIFICATION ( #141, ( #85 ) ) ;
#195 = FACE_OUTER_BOUND ( 'NONE', #108, .T. ) ;
#196 = EDGE_CURVE ( 'NONE', #130, #29, #41, .T. ) ;
#197 = LINE ( 'NONE', #255, #27 ) ;
#198 = DIRECTION ( 'NONE',  ( 1.000000000000000000, 0.000000000000000000, 0.000000000000000000 ) ) ;
#199 = AXIS2_PLACEMENT_3D ( 'NONE', #18, #40, #122 ) ;
#200 = APPROVAL_PERSON_ORGANIZATION ( #71, #248, #111 ) ;
#201 = CARTESIAN_POINT ( 'NONE',  ( 0.000000000000000000, 0.000000000000000000, 3.000000000000000000 ) ) ;
#202 = DATE_AND_TIME ( #243, #65 ) ;
#203 = APPROVAL_ROLE ( '' ) ;
#204 = AXIS2_PLACEMENT_3D ( 'NONE', #156, #234, #198 ) ;
#205 = APPLICATION_PROTOCOL_DEFINITION ( 'international standard', 'config_control_design', 1994, #121 ) ;
#206 = EDGE_CURVE ( 'NONE', #77, #29, #3, .T. ) ;
#207 = ORIENTED_EDGE ( 'NONE', *, *, #95, .T. ) ;
#208 = ORIENTED_EDGE ( 'NONE', *, *, #129, .F. ) ;
#209 = CIRCLE ( 'NONE', #230, 2.100000000000000089 ) ;
#210 = CC_DESIGN_PERSON_AND_ORGANIZATION_ASSIGNMENT ( #43, #126, ( #188 ) ) ;
#211 = CARTESIAN_POINT ( 'NONE',  ( 0.000000000000000000, 0.000000000000000000, 3.000000000000000000 ) ) ;
#212 = PERSON ( 'NEURÈENÝ', 'NEURÈENÝ', 'NEURÈENÝ', ('NEURÈENÝ'), ('NEURÈENÝ'), ('NEURÈENÝ') ) ;
#213 = CARTESIAN_POINT ( 'NONE',  ( 4.000000000000000000, 4.898587196589412829E-16, 0.000000000000000000 ) ) ;
#214 = DIRECTION ( 'NONE',  ( 1.000000000000000000, 0.000000000000000000, 0.000000000000000000 ) ) ;
#215 = APPROVAL_PERSON_ORGANIZATION ( #246, #183, #67 ) ;
#216 = DIRECTION ( 'NONE',  ( 1.000000000000000000, 0.000000000000000000, 0.000000000000000000 ) ) ;
#217 = DIRECTION ( 'NONE',  ( 0.000000000000000000, 0.000000000000000000, 1.000000000000000000 ) ) ;
#218 = EDGE_CURVE ( 'NONE', #77, #55, #63, .T. ) ;
#219 = CARTESIAN_POINT ( 'NONE',  ( 0.000000000000000000, 0.000000000000000000, 500.0000000000000000 ) ) ;
#220 = DATE_AND_TIME ( #107, #28 ) ;
#221 = CIRCLE ( 'NONE', #93, 2.100000000000000089 ) ;
#222 = COORDINATED_UNIVERSAL_TIME_OFFSET ( 1, 0, .AHEAD. ) ;
#223 = DATE_AND_TIME ( #89, #52 ) ;
#224 = EDGE_CURVE ( 'NONE', #55, #130, #5, .T. ) ;
#225 = PRODUCT_DEFINITION ( 'NEZNÁMÝ', '', #85, #20 ) ;
#226 = ORIENTED_EDGE ( 'NONE', *, *, #224, .T. ) ;
#227 = DATE_AND_TIME ( #114, #154 ) ;
#228 = ORIENTED_EDGE ( 'NONE', *, *, #95, .F. ) ;
#229 = DIRECTION ( 'NONE',  ( 0.000000000000000000, 0.000000000000000000, 1.000000000000000000 ) ) ;
#230 = AXIS2_PLACEMENT_3D ( 'NONE', #219, #137, #214 ) ;
#231 = ORIENTED_EDGE ( 'NONE', *, *, #90, .F. ) ;
#232 = CARTESIAN_POINT ( 'NONE',  ( 0.000000000000000000, 0.000000000000000000, 3.000000000000000000 ) ) ;
#233 = EDGE_CURVE ( 'NONE', #31, #94, #36, .T. ) ;
#234 = DIRECTION ( 'NONE',  ( 0.000000000000000000, 0.000000000000000000, 1.000000000000000000 ) ) ;
#235 = DIRECTION ( 'NONE',  ( -0.000000000000000000, -0.000000000000000000, -1.000000000000000000 ) ) ;
#236 = AXIS2_PLACEMENT_3D ( 'NONE', #180, #178, #64 ) ;
#237 = PLANE ( 'NONE',  #199 ) ;
#238 = CARTESIAN_POINT ( 'NONE',  ( 2.100000000000000089, 2.571758278209441464E-16, 3.000000000000000000 ) ) ;
#239 = DIRECTION ( 'NONE',  ( -0.000000000000000000, -0.000000000000000000, -1.000000000000000000 ) ) ;
#240 = VECTOR ( 'NONE', #17, 1000.000000000000000 ) ;
#241 = CARTESIAN_POINT ( 'NONE',  ( 0.000000000000000000, 0.000000000000000000, 0.000000000000000000 ) ) ;
#242 = PRODUCT_DEFINITION_SHAPE ( 'NONE', 'NONE',  #225 ) ;
#243 = CALENDAR_DATE ( 2023, 13, 2 ) ;
#244 = APPROVAL_DATE_TIME ( #159, #60 ) ;
#245 = AXIS2_PLACEMENT_3D ( 'NONE', #249, #73, #1 ) ;
#246 = PERSON_AND_ORGANIZATION ( #212, #250 ) ;
#247 = APPROVAL_DATE_TIME ( #220, #183 ) ;
#248 = APPROVAL ( #23, 'NEURÈENÝ' ) ;
#249 = CARTESIAN_POINT ( 'NONE',  ( 0.000000000000000000, 0.000000000000000000, 3.000000000000000000 ) ) ;
#250 = ORGANIZATION ( 'NEURÈENÝ', 'NEURÈENÝ', '' ) ;
#251 = ORIENTED_EDGE ( 'NONE', *, *, #224, .F. ) ;
#252 = ORIENTED_EDGE ( 'NONE', *, *, #218, .T. ) ;
#253 = EDGE_LOOP ( 'NONE', ( #35, #189 ) ) ;
#254 = VERTEX_POINT ( 'NONE', #87 ) ;
#255 = CARTESIAN_POINT ( 'NONE',  ( -2.100000000000000089, 0.000000000000000000, 500.0000000000000000 ) ) ;
ENDSEC;
END-ISO-10303-21;
